Avenged Sevenfold

Início > Avenged Se... > acordes

God Hates Us Tablatura

Avenged Sevenfold

Dificultad:AdelantadoAdelantado

bombaXXX

tuner correct add songbook print version text version salvar en e-mail
acordesukuleletablaturabajobateríaarmónicaflautacavacopiano Guitar Pro
acordes

God Hates Us

	  (dropped D) 

E|------------------------------------------------------------| 
B|--10-----10----8---8-----6---6---5----5---------------------| 
G|----10----10----9----9----7---7----7----7-------------------|(4x) 
D|------12---12----10---10---7---7-----8----8-----------------| 
A|------------------------------------------------------------| 
D|------------------------------------------------------------| 

E|--------8--------------------------------| 
B|10-13-8--8-10-8--------------------------| 
G|----------------10-7-9-7-----------------| 
D|-------------------------8---------------| (2x) 
A|-----------------------------------------| 
D|-----------------------------------------| 

E|-----------------------------------------------------------17-21----| 
B|---------------------------------------------17-20-18-17-18---------| 
G|-------------12-----------14-12-10--18-18-19------------------------| 
D|-11-11-12-14-----15-14-15-------------------------------------------| 
A|--------------------------------------------------------------------| 
D|--------------------------------------------------------------------| 

E|-------------------------------------------------| 
B|-------------------------------------------------| 
G|-------------------------------------------------| 
D|-7-----------7-------5-----8-7-------------------| (6x) 
A|-5-----------5--0-0--3-0-0-6-5-------------------| 
D|--0-0-0-0-0-0---0-0----0-0-----------------------| 

E|-------------------------------------| 
B|-------------------------------------| 
G|-------------------------------------| 
D|-7----5-----8--------8-8-------------| 
A|-5----3-00--6--1-1-1-6-6-------------| 
D|--0-0---00-----1-1-1-----------------| 

E|-------------------------------------| 
B|-------------------------------------| 
G|---7-7-5--8-----10-10-10--8-7--------| 
D|-------------------------------------| 
A|-0-5-5-3--6--0--8--8--8---6-5--------| 
D|-0-----------0-----------------------| 

E|-------------------------------------------------| 
B|-------------------------------------------------| 
G|---7-7-5-8-------10-10-10--8-7-------------------| 
D|-------------------------------------------------| 
A|-0-5-5-3-6----0--8--8--8---6-5---1-1-1--1--------| 
D|-0------------0------------------1-1-1--1--------| 

E|--------------------------------------------------------| 
B|--------------------------------------------------------| 
G|--------------------------------------------------------| 
D|-----------------------------------------------4-5-4----| 
A|-5---3---6----5----3----3-5---5-----3-----5-------------| 
D|--0-0-0-0-0-0--0-0---0-0--------0-0---0-0---0-0---------| 

E|--------------------------------------------------------| 
B|--------------------------------------------------------| 
G|--------------------------------------------------------| 
D|--------------------------------------------------------| 
A|-5---3---6----5----3----3-5---5-----3--3--6--9----------| 
D|--0-0-0-0-0-0--0-0---0-0--------0-0----3--6--9----------| 

E|----------------------------------| 
B|----------------------------------| 
G|----------------------------------| 
D|----------------------------------| 
A|-3--6--3--9--6--3--6--0-9---------| 
D|-3--6--3--9--6--3--6--0-9---------| 

(solo) 
E|-----------15---------15---------18--------18----------------------------| 
B|-15-18-15--18-15-18---18--15-18--15-15-18--15---18---18---18-------------| 
G|---------------------------------------------------16---16---16----------| 
D|-------------------------------------------------------------------------| 
A|-------------------------------------------------------------------------| 
D|-------------------------------------------------------------------------| 
	  

No existe una video leccione para esta canción

request
Aumentar uno tonoAumentar uno tono
Aumentar uno semi-tonoAumentar uno semi-tono
Disminuir uno semi-tonoDisminuir uno semi-tono
Disminuir uno tonoDisminuir uno semi-tono
LosAcordes
Buscar
auto avanzar rasgueos aumentar disminuir cambiar color esconder acordes gráficos
losacordes exhibir acordes losacordes youTube video losacordes ocultar tabs losacordes ir hacia arriba losacordes