Avenged Sevenfold

Início > Avenged Se... > acordes

Girl I Know Tablatura

Avenged Sevenfold

Dificultad:ExpertoExperto

fernsantana

tuner correct add songbook print version text version salvar en e-mail
acordesukuleletablaturabajobateríaarmónicaflautacavacopiano Guitar Pro
acordes

Girl I Know

	  Song: Girl I Know 
Tuning: Drop D            all by ear, enjoy... oh and rate, thanks 

    
   
  |Intro| 
e|---------------------------------------------------------------------| 
B|---------------------------------------------------------------------| 
G|---------------------------------------------------------------------| 
D|--------0000-------0000------------------------------3---------------| 
A|--------0000---3---0000--------------------------3-5---5^------------| 
E|--------0000---3---0000---5^-----00-3-000----3-5---------------------| 
PM:       ****   *   ****          ** * ***    * * * * * * 
   
  |Intro| continued 
e|---------------------------------------------------------------------| 
B|---------------------------------------------------------------------| 
G|---------------------------------------------------------------------| 
D|--------0000-------0000----------------------------------------------| 
A|--------0000---3---0000----------------------------------------------| 
E|--------0000---3---0000---5^----------6b----3^-----------------------|   
PM:       ****   *   ****    

|Intro|x3 
   
   
  |Verse Riff| 
e|---------------------------------------------------------------------| 
B|---------------------------------------------------------------------| 
G|---------------------------------------------------------------------| 
D|---------------------------------------------------0---3---5---6-----| 
A|----00---0-00---0-00---0-00---0-00---0-00---0------0---3---5---6-----| 
E|----00---0-00---0-00---0-00---0-00---0-00---0------0---3---5---6-----| 
PM:   **   * **   * **   * **   * **   * **   * 
e|---------------------------------------------------------------------| 
B|---------------------------------------------------------------------| 
G|---------------------------------------------------------------------| 
D|----------------------------------------------------------10---6---5-| 
A|----00---0-00---0-00---0-00---0-00---0-00---0-------------10---6---5-| 
E|----00---0-00---0-00---0-00---0-00---0-00---0----10h12^---10---6---5-| 
PM:   **   * **   * **   * **   * **   * **   * 

  |Verse Riff B| Tremelo pick the 5's 
e|---------------------------------------------------------------------| 
B|---------------------------------------------------------------------| 
G|---------------------------------------------------------------------| 
D|------0-0--------0-0-0--------0-0--------0-0-------------------------| 
A|------0-0--------0-0-0--------0-0--------0-0-------------------------| 
E|------0-0---5^---0-0-0---5^---0-0---5^---0-0----12^------------------| 

|Verse Riff|x1 

   
  |Pre-Chorus Rhythm| 
e|---------------------------------------------------------------------| 
B|---------------------------------------------------------------------| 
G|---------------------------------------------------------------------| 
D|------------8----8----8-8~------------10----10----10-10~-------------| 
A|------------8----8----8-8~------------10----10----10-10~-------------| 
E|------------8----8----8-8~------------10----10----10-10~-------------| 

  |Pre-Chorus Lead| 
e|---------------------------------------------------------------------| 
B|---------7-777-----10^-------------7-77-7-77-7-7^------5^-------------| 
G|---------------------------------------------------------------------| 
D|---------------------------------------------------------------------| 
A|---------------------------------------------------------------------| 
E|---------------------------------------------------------------------| 
    Sweep pickin is recommmended  
e|-------------------------------------------------------------19b-(20)| 
B|----------------------------------------------------17h19h22---------| 
G|--------------------------------------------18h19h21-----------------| 
D|----------17h19h20-19h17------------17h19h20-------------------------| 
A|--17h19h20--------------20--17h19h20---------------------------------| 
E|---------------------------------------------------------------------| 

  |Chorus Rhythm| 
e|---------------------------------------------------------------------| 
B|---------------------------------------------------------------------| 
G|---------------------------------------------------------------------| 
D|----0000-------0000---------------------------8-8-8-8----10-10-10-10-|x2 
A|----0000---3---0000---------------------------8-8-8-8----10-10-10-10-| 
E|----0000---3---0000---5^/--------10-12^------8-8-8-8----10-10-10-10-| 
PM:   ****   *   ****                                
   
  |Chorus Lead| 
e|---------------------------------------------------------------------| 
B|----------6------9^--------------------18b------------20b------------| 
G|-----7777---7777----------------15--15---------17--17----------------| 
D|----------------------------------15-------------17------------------|x2 
A|---------------------------------------------------------------------| 
E|---------------------------------------------------------------------| 

  |Chorus Outro Syns part| 
e|---------------------------------------------------------------------| 
B|----------17b----20b----22b----21b----19b----15b----17b^-------------| 
G|---------------------------------------------------------------------| 
D|---------------------------------------------------------------------| 
A|---------------------------------------------------------------------| 
E|---------------------------------------------------------------------| 

  |Chorus Outro Zackys Part| 
e|---------------------------------------------------------------------| 
B|----------17b----20b----22b----21b----19b----------------------------| 
G|---------------------------------------------------------------------| 
D|---------------------------------------------15b----17b^-------------| 
A|---------------------------------------------------------------------| 
E|---------------------------------------------------------------------| 

  |Chorus Outro Rhythm| 
e|---------------------------------------------------------------------| 
B|---------------------------------------------------------------------| 
G|---------------------------------------------------------------------| 
D|--------11-11-11-11------12-12----7-7----8-8-8-8----10-10-10-10-----| 
A|--------11-11-11-11------12-12----7-7----8-8-8-8----10-10-10-10-----| 
E|--------11-11-11-11------12-12----7-7----8-8-8-8----10-10-10-10-----| 

  |Chorus Outro Interlude| use verse riff B for the rhythm 
e|---------------------------------------------------------------------| 
B|---------------------------------------------------------------------| 
G|---------------------------------------------------------------------| 
D|------------------15-17-15---------------------15-17-15--------------| 
A|---------15-17-18----------18---------15-17-18----------18-----------| 
E|------18---------------------------18--------------------------------| 
PM:     *  *  *  *  *  *  *  *        * *  *  *  *  *  *  * 
e|---------------------------------------------------------------------| 
B|---------------------------------------------------------------------| 
G|------------------------------17-14-12-14--19b-----------------------| 
D|---------------------15-17-18----------------------------------------| 
A|---------15-17-18-18-------------------------------------------------| 
E|------18-------------------------------------------------------------| 
PM:     *  *  * 

THEN... 

|Verse|x1 

|Pre-Chorus|x1 

  |Pre-Chorus Interlude| 2nd time  *this is a bit different then the first* 
e|-------------------------------------------------------------19b-(20)| 
B|----------------------------------------------------17h19h22---------| 
G|--------------------------------------------18h19h21-----------------| 
D|-20h19h17-----20h19h17--------------17h19h20-------------------------| 
A|----------20-----------20---17h19h20---------------------------------| 
E|---------------------------------------------------------------------| 

|Chorus|x1 *Dont play the interlude!* 

  |Pre-Solo Rhythm| 
e|---------------------------------------------------------------------| 
B|---------------------------------------------------------------------| 
G|---------------------------------------------------------------------| 
D|------0-0--------0-0-0--------0-0--------0-0-------------------------| 
A|------0-0--------0-0-0--------0-0--------0-0-------------------------| 
E|------0-0---5^---0-0-0---5^---0-0---5^---0-0----12^------------------| 

  |Pre-Solo Lead| 
e|----------------------------------19bp------------(19)---------------| 
B|--------------19bp---19b-19b-----------------------------------------| 
G|---------------------------------------------------------------------| 
D|---------------------------------------------------------------------| 
A|---------------------------------------------------------------------| 
E|---------------------------------------------------------------------| 

  |Solo| play verse riff for rhythm 
e|-----------------------------------------------------17bp-----15-17b-| 
B|------------------------------------------------19-------------------| 
G|------------------------19b-17b---19191919----19---------------------| 
D|-----------15h18h15h18----------------------19-----------------------| 
A|--17171717-----------------------------------------------------------| 
E|---------------------------------------------------------------------| 

e|---------------------------------------------------------------------| 
B|---------------------------------------------------------------------| 
G|--------19b------17h16h19--------------------------------------------| 
D|---------------------------------19b------17-15-14-12bp--------------| 
A|---------------------------------------------------------------------| 
E|---------------------------------------------------------------------| 

e|------------------------------------------------------17/1917-------| 
B|--------------------------------------------------19-----------------| 
G|---------------------------19b-17--/19191919---19-------------------| 
D|---------------15h18h15h18--------------------19---------------------| 
A|------17171717-------------------------------------------------------| 
E|---------------------------------------------------------------------| 

e|----------------19bp--------------17bp----------------------------------| 
B|-----------------------------------------------20b------13------13------| 
G|--19191919191919----17171717171717----15151515-----14-15---14-15----12b-| 
D|------------------------------------------------------------------------| 
A|------------------------------------------------------------------------| 
E|------------------------------------------------------------------------| 

e|------------------------------------------------------------------------| 
B|------------------------------------------------------------------------| 
G|------------19-19-17----17-------17-17-17-------------------------------| 
D|---------------------19----19-18----------19-18-19-15-------------------| 
A|------------------------------------------------------17----------------| 
E|------------------------------------------------------------------------| 

e|---------------------------------------------------------------------| 
B|---------------------------------------------------------------------| 
G|---------------------------------------------------------------------| 
D|----------18-18-17-15----15----------------15-15h17h15---------------| 
A|----------------------17----17-------15-17-------------17------------| 
E|---------------------------------18^---------------------------------| 

e|---------------------------------------------------------------------| 
B|---------------------------------------------------------------------| 
G|--19-19-17----17-------17-17-17--------------------------------17b---| 
D|-----------19----19-18----------19-18-19-15-----------------15----19-| 
A|--------------------------------------------17---------15-17---------| 
E|-------------------------------------------------18-18---------------| 

e|-----------------19bp------------------------------------------------| 
B|-----------19-20------20---------------------------------------------| 
G|---------19----------------------------------------------------------| 
D|----19-19------------------------------------------------------------| 
A|---------------------------------------------------------------------| 
E|---------------------------------------------------------------------| 

     the two guitars play this 
e|------------------------------------------------------------------------| 
B|------------------------------------------------------------------------| 
G|------------19-19-17----17-------17-17-17-------------------------------| 
D|---------------------19----19-18----------19-18-19-15-------------------| 
A|------------------------------------------------------17----------------| 
E|------------------------------------------------------------------------| 

e|---------------------------------------------------------------------| 
B|---------------------------------------------------------------------| 
G|---------------------------------------------------------------------| 
D|----------18-18-17-15----15----------------15-15h17h15---------------| 
A|----------------------17----17-------15-17-------------17------------| 
E|---------------------------------18^---------------------------------| 

e|---------------------------------------------------------------------| 
B|---------------------------------------------------------------------| 
G|--19-19-17----17-------17-17-17--------------------------------17b---| 
D|-----------19----19-18----------19-18-19-15-----------------15----19-| 
A|--------------------------------------------17---------15-17---------| 
E|-------------------------------------------------18-18---------------| 

e|-----------------19bp------------------------------------------------| 
B|-----------19-20------20---------------------------------------------| 
G|---------19----------------------------------------------------------| 
D|----19-19------------------------------------------------------------| 
A|---------------------------------------------------------------------| 
E|---------------------------------------------------------------------| 

  |Solo Outro| both guitars 
e|---------------------------------------------------------------------| 
B|---------------------------------------------------------------------| 
G|---------15---14----12-14-------12-14-17-17---15-14-12b--------------| 
D|---------------------------------------------------------------------| 
A|---------------------------------------------------------------------| 
E|---------------------------------------------------------------------| 
  
  |Solo Outro Rhythm|  
e|---------------------------------------------------------------------| 
B|---------------------------------------------------------------------| 
G|---------------------------------------------------------------------| 
D|----8----8---8-8~-------10----10---10-10-----10-10-10-10-10-10-10----| 
A|----8----8---8-8~-------10----10---10-10-----10-10-10-10-10-10-10----| 
E|----8----8---8-8~-------10----10---10-10-----10-10-10-10-10-10-10----| 

  |Bridge Rhythm| 
e|---------------------------------------------------------------------| 
B|---------------------------------------------------------------------| 
G|---------------------------------------------------------------------| 
D|-0-0-0-0-0-0-0-0-0-0-0-0-0-0-0-0-7-7-7-7-7--8-8-8-8-8-8--10-10-10-10-| 
A|-0-0-0-0-0-0-0-0-0-0-0-0-0-0-0-0-7-7-7-7-7--8-8-8-8-8-8--10-10-10-10-| 
E|-0-0-0-0-0-0-0-0-0-0-0-0-0-0-0-0-7-7-7-7-7--8-8-8-8-8-8--10-10-10-10-| 
PM:* * * * * * * * * * * * * * * * * * * * *  * * * * * *  *  *  *  *   
  |Bridge Syns Part| 
e|----------------------------------------1613/14b--------------------| 
B|-------------8-11-11-10-----------9-12------------------------------| 
G|---------10--------------------10------------------------------------| 
D|---------------------------------------------------------------------| 
A|---------------------------------------------------------------------| 
E|---------------------------------------------------------------------| 

e|-----------19----17/1916---13/1613---10/13------------------------| 
B|----------------------------------------------10---------------------| 
G|---------------------------------------------------------------------| 
D|---------------------------------------------------------------------| 
A|---------------------------------------------------------------------| 
E|---------------------------------------------------------------------| 

e|---------------------------------------------------------------------| 
B|---------------------------------------------------------------------| 
G|----------------10^/12/14-----13^15/17---------------------------| 
D|---------------------------------------------------------------------| 
A|---------------------------------------------------------------------| 
E|---------------------------------------------------------------------| 
   
  |Bridge Zackys Part| 
e|---------------------------------------11-1613/14b------------------| 
B|--------------------------------10---12------------------------------| 
G|----------12-15-15-14-----------------------------------------------| 
D|------15-------------------------------------------------------------| 
A|---------------------------------------------------------------------| 
E|---------------------------------------------------------------------| 

e|-----------19----17/1916---13/1613---10/13------------------------| 
B|----------------------------------------------10---------------------| 
G|---------------------------------------------------------------------| 
D|---------------------------------------------------------------------| 
A|---------------------------------------------------------------------| 
E|---------------------------------------------------------------------| 

e|---------------------------------------------------------------------| 
B|---------------------------------------------------------------------| 
G|----------------10^/12/14-----13^15/17---------------------------| 
D|---------------------------------------------------------------------| 
A|---------------------------------------------------------------------| 
E|---------------------------------------------------------------------| 
   
  |Interlude Rhythm| 
e|--------------------------------------------------------|------------| 
B|--------------------------------------------------------|------------| 
G|--------------------------------------------------------|------------| 
D|-----0-0--------0-0-0--------0-0--------0-0-0-----------|------------|x2 
A|-----0-0--------0-0-0--------0-0--------0-0-0-----------|------------| 
E|-----0-0---5^---0-0-0---5^---0-0---5^---0-0-0---5^------|-----12^----| 

  |Interlude Lead|  
e|----------------------------19bp---(19)------------------------------| 
B|---------------------------------------------------------------------| 
G|---------------------------------------------------------------------| 
D|---------------------------------------------------------------------| 
A|---------------------------------------------------------------------| 
E|---------------------------------------------------------------------| 

|Chorus|x1 

  |Outro| 
e|---------------------------------------------------------------------| 
B|---------------------------------------------------------------------| 
G|---------------------------------------------------------------------| 
D|---------------------------------------------------0---3---5---6-----| 
A|----00---0-00---0-00---0-00---0-00---0-00---0------0---3---5---6-----| 
E|----00---0-00---0-00---0-00---0-00---0-00---0------0---3---5---6-----| 
PM:   **   * **   * **   * **   * **   * **   * 

e|---------------------------------------------------------------------| 
B|---------------------------------------------------------------------| 
G|---------------------------------------------------------------------| 
D|----------------------------------------------------------10---6---5-| 
A|----00---0-00---0-00---0-00---0-00---0-00---0-------------10---6---5-| 
E|----00---0-00---0-00---0-00---0-00---0-00---0----10h12^---10---6---5-| 
PM:   **   * **   * **   * **   * **   * **   * 

e|------------------------------| 
B|------------------------------| 
G|------------------------------| 
D|-------------0-0--------------| 
A|-------------0-0--------------| 
E|-------------0-0--------------| 
PM:            * * 


| ~  hold note 
| *  palm mute 
| /  slide up 
|   slide down 
| h  hammer-on 
| p  pull-off 
| ^  vibrato 
|()  harmonic 
| x  Mute note 
	  

No existe una video leccione para esta canción

request
Aumentar uno tonoAumentar uno tono
Aumentar uno semi-tonoAumentar uno semi-tono
Disminuir uno semi-tonoDisminuir uno semi-tono
Disminuir uno tonoDisminuir uno semi-tono
LosAcordes
Buscar
auto avanzar rasgueos aumentar disminuir cambiar color esconder acordes gráficos
losacordes exhibir acordes losacordes youTube video losacordes ocultar tabs losacordes ir hacia arriba losacordes