Avenged Sevenfold

Início > Avenged Se... > acordes

Forgotten Faces Tablatura

Avenged Sevenfold

Dificultad:PrincipiantePrincipiante

tuner correct add songbook print version text version salvar en e-mail
acordesukuleletablaturabajobateríaarmónicaflautacavacopiano Guitar Pro
acordes

Forgotten Faces

	  Drop D Tuning 
*-Mute 
h-Hammer-on 
/-Slide Up 
\-Slide Down 
 
Intro / Verse 
1--------------------------------------------------------| 
2--------------------------------------------------------| 
3--------------------------------------------------------| 
4--0-0-0-0-----0-0-0-0-------0-0-0-0-----0-0-0-0---------| 
5--0-0-0-0-5~--0-0-0-0-5h6~--0-0-0-0-3~--0-0-0-0-6h8-8~--| 
6--0-0-0-0-0~--0-0-0-0-------0-0-0-0-----0-0-0-0---------| 
   * * * *     * * * *       * * * *     * * * * 
1--------------------------------------------------------------| 
2--------------------------------------------------------------| 
3--------------------------------------------------------------| 
4--7-7--7-7-7-5-/-7-\\-5-5-5-5-5-5--8-8--10-10-10-10-10-/-12---| 
5--5-5--5-5-5-3-/-5-\\-3-3-3-3-3-3--6-6--8--8--8--8--8--/-10---| 
6--0-0---------------------------------------------------------| 
 
1-------------------------| 
2-------------------------| 
3--(slow)-----------------| 
4--7-\-3-\-0----1--3--5---| 
5--5-\-1-\-0----1--3--5---| 
6----------0----1--3--5---| 
 
1-------------------------------------------------------------| 
2-------------------------------------------------------------| 
3-------------------------------------------------------------| 
4--7-7--7-7-7-5-/-7--5-5-5-5-5-5--8-8--10-10-10-10-10-/-12----| 
5--5-5--5-5-5-3-/-5--3-3-3-3-3-3--6-6--8--8--8--8--8--/-10----| 
6--0-0--------------------------------------------------------| 
 
1-------------------------------------------------------------------------| 
2-------------------------------------------------------------------------| 
3-------------------------------------------------------------------------| 
4--7-9-10-----10-9------------------------7-9-10-----10-9--333--7--3--5--7--| 
5--5-7-8--10--8--7--555--4-5-4-7--5-4-0---5-7-8--10--8--7--333--7--3--5--7--| 
6---------10--------555--------------------------10--------333--7--3--5--7--| 
                                                              *  *  *  * 
1-----------------------------------------|------| 
2-----------------------------------------|------| 
3-----------------------------------------|------| 
4--0000-0--5555-5--3333-3--88-8--1010-10--|--0~--| 
5--0000-0--5555-5--3333-3--88-8--1010-10--|--0~--| 
6--0000-0--5555-5--3333-3--88-8--1010-10--|--0~--| 
   ****    ****    ****    **    * * 
1--------------------------------| 
2--------------------------------| 
3--------------------------------| 
4------------7-7-77--10-10-1010--| 
5------------5-5-55--8--8--8-8---| 
6------------0-0-00--------------| 
 
1---------------------------------------------------------------------------| 
2---------------------------------------------------------------------------| 
3------------------------------------------------3333333------------3333333-| 
4-------------------1010101010101010101010101010-3333333-0-0--3-3-3-3333333-| 
5-------------------8-8-8-8-8-8-8-8-8-8-8-8-8-8--1111111-0-0--5-5-5-1111111-| 
6--------------------------------------------------------0-0----------------| 
                    * * * * * * * * * * * * * * 
"Solo" 
1---------------------| 
2----------8-----/10--| 
3--7--10-9---10-------| 
4---------------------| 
5---------------------| 
6---------------------| 
Behind "Solo" 
1---------------------| 
2---------------------| 
3---------------------| 
4--0--10--8-0-8-------| 
5--0--10--8-0-8-------| 
6--0--10--8-0-8-------| 
            * 
1---------------------|-----------------------------------| 
2---------------------|-----------------------------------| 
3---------------------|-----------------------------------| 
4--/7-----/7----------|-7--------777-77--7--------777-77--| 
5--/5--5--/5--5-------|-5-5--555-555-55--5-5--555-555-55--| 
6------0------0-------|---0--555-----------0--555---------| 
                             *** *** **       *** *** ** 

	  

No existe una video leccione para esta canción

request
Aumentar uno tonoAumentar uno tono
Aumentar uno semi-tonoAumentar uno semi-tono
Disminuir uno semi-tonoDisminuir uno semi-tono
Disminuir uno tonoDisminuir uno semi-tono
LosAcordes
Buscar
auto avanzar rasgueos aumentar disminuir cambiar color esconder acordes gráficos
losacordes exhibir acordes losacordes youTube video losacordes ocultar tabs losacordes ir hacia arriba losacordes