Avenged Sevenfold

Início > Avenged Se... > acordes

Burn it down Tablatura

Avenged Sevenfold

Dificultad:FácilFácil

europeu

tuner correct add songbook print version text version salvar en e-mail
acordesukuleletablaturabajobateríaarmónicaflautacavacopiano Guitar Pro
acordes

Burn it down

	  Introduction harmony 
incase your looking for the second guitar harmony u can simply start at the 
7th fret on the low E string and play the harmony in the same figure as this 
but in a diff key. 
 
e|--12-------12--10-------10-12-------12-13-10---13--------------------------| 
B|--------13-----------12----------13---------12-----------------------------| 
G|-----14-----------12----------14-------------------------------------------| 
D|---------------------------------------------------------------------------| 
A|---------------------------------------------------------------------------| 
D|---------------------------------------------------------------------------| 
 
e|--12-------12--10-------10-12-------12-13-10---13--------------------------| 
B|--------13-----------12----------13---------12-----------------------------| 
G|-----14-----------12----------14-------------------------------------------| 
D|---------------------------------------------------------------------------| 
A|---------------------------------------------------------------------------| 
D|---------------------------------------------------------------------------| 
 
e|--------------10----13--10-|-12--------12-13--------17-15-------15------| 
B|-13--------13----12--------|-------13--------12-15-----------17---------| 
g|-------14------------------|----14------------------------17------------| 
d|----14---------------------|--------------------------------------------| 
A|---------------------------|--------------------------------------------| 
D|---------------------------|--------------------------------------------| 
 
e|-15/19-13-------13-12-------12/19\\-------------------------------------------| 
B|-------------15------13---13--------------------------------------------------| 
G|----------14-----------14-----------------------------------------------------| 
D|------------------------------------------------------------------------------| 
A|------------------------------------------------------------------------------| 
D|------------------------------------------------------------------------------| 
 
 
E|-------------------------|-----------| 
B|-------------------------|-----------| 
G|--2---3---2---5---2---3------2---2---| 
D|--2---3---2---5---2---3------2---2---| 
A|--0-0-1-0-0-0-3-0-0-0-1--0-0-0-0-0---| 
D|-------------------------------------| 
      PM  PM  PM  PM  PM  PM--   PM 
 
 
E|-----------------------------------| 
B|-----------------------------------| 
G|--2---3---2---5---2---3------------| 
D|--2---3---2---5---2---3------------| 
A|--0-0-1-0-0-0-3-0-0-0-1------------| 
D|--------------------------5--3--2--| 
      Pm  Pm  Pm  Pm  Pm 
E|---------------------|----------------| 
B|---------------------|----------------| 
G|-7-7--7-7-7-7-|-6-6--6-14-14-14--14---| 
D|-7-7--7-7-7-7-|-7-7--7--x--x--x---x---| 
A|-5-5--5-5-5-5-|-4-4--4-12-12-12--12---| 
D|---------------------|----------------| 
 
E|---------------------------|-----------------------| 
B|---------------------------|-----------------------| 
G|-15-15-15--15-15-15-15--15-|---18-18-18-18s19-19---| 
d|--x--x--x---x--x--x--x---x-|----x--x--x--x--x--x---| 
A|-13-13-13--13-13-13-13--13-|---16-16-16-16s17-17---| 
D|---------------------------|-----------------------| 
 
E|-----------------------------------------------------------------------------| 
B|-----------------------------------------------------------------------------| 
G|-----------------------------------------------------------------------------| 
D|-----------------------------------------------------------------------------| 
A|----------8--------7---------10---------8------------------------------------| 
E|--0-0-0-0?-0-0-0-0---0-0-0-0----0-0-0-0--------------------------------------| 
   |--Pm--|  |--Pm--|  |--Pm--|   |--Pm----------------------------------------| 
 
E|----------------------------------------------------------------------------| 
B|----------------------------------------------------------------------------| 
G|-14-14-14---12--9--10-10----14/15---9/10------------------------------------| 
D|- x--x--x----x--x--x--x---- -x?-x---x--x------------------------------------| 
A|-12-12-12---10--7--8--8-----12/13---7/12------------------------------------| 
E|----------------------------------------------------------------------------| 
 
E|----------------------------------------------------------------------------| 
B|----------------------------------------------------------------------------| 
G|-14-14-14---12--9--10-10-10-14-14/17--14-10-9/-10-9-------------------------| 
D|- x--x--x----x--x--x--x--x---x--x--x---x--x-x--x--x-------------------------| 
A|-12-12-12---10--7--8--8--8--12-12/15--12--8-7/-8\-7-------------------------| 
E|----------------------------------------------------------------------------| 
 
 
e|-----------------------------------------------------------------------------| 
B|-----------------------------------------------------------------------------| 
G|-----------------------------------------------------------------------------| 
D|-----------------------------------------------------------------------------| 
A|-0-0-0-0--0-0--0------0------------------------------------------------------| 
E|-0-0-0-0--0-0--0?-5~--0?-8~--------------------------------------------------| 
  |--Pm--|       PM     PM 
 
^ ^ ^ ^  DO THIS 4 TIMES ^^^^^^ 
 
E|-------------------------------------| 
B|-------------------------------------| 
G|---2---3---2---5---2---3-----2---2---| 
D|---2---3---2---5---2---3-----2---2---| 
A|-0-0-0-1-0-0-0-3-0-0-0-1-0-0-0-0-0---| 
D|-------------------------------------| 
      PM  PM  PM  PM  PM  PM--   PM 
 
e|--12-------12--10-------10-12-------12-13-10---13--------------------------| 
B|--------13-----------12----------13---------12-----------------------------| 
G|-----14-----------12----------14-------------------------------------------| 
D|---------------------------------------------------------------------------| 
A|---------------------------------------------------------------------------| 
D|---------------------------------------------------------------------------| 
 
e|--12-------12--10-------10-12-------12-13-10---13--------------------------| 
B|--------13-----------12----------13---------12-----------------------------| 
G|-----14-----------12----------14-------------------------------------------| 
D|---------------------------------------------------------------------------| 
A|---------------------------------------------------------------------------| 
D|---------------------------------------------------------------------------| 
 
e|--------------10----13--10-|-12--------12-13--------17-15-------15------| 
B|-13--------13----12--------|-------13--------12-15-----------17---------| 
g|-------14------------------|----14------------------------17------------| 
d|----14---------------------|--------------------------------------------| 
A|---------------------------|--------------------------------------------| 
D|---------------------------|--------------------------------------------| 
 
e|-15/19-13-------13-12-------12-----------------------------------------------| 
B|-------------15------13---13-------------------------------------------------| 
G|----------14-----------14----------------------------------------------------| 
D|-----------------------------------------------------------------------------| 
A|-----------------------------------------------------------------------------| 
D|-----------------------------------------------------------------------------| 
 
E|-------------------------|-----------| 
B|-------------------------|-----------| 
G|--2---3---2---5---2---3------2---2---| 
D|--2---3---2---5---2---3------2---2---| 
A|--0-0-1-0-0-0-3-0-0-0-1--0-0-0-0-0---| 
D|-------------------------------------| 
      PM  PM  PM  PM  PM  PM--   PM 
 
E|-----------------------------------| 
B|-----------------------------------| 
G|--2---3---2---5---2---3------------| 
D|--2---3---2---5---2---3------------| 
A|--0-0-1-0-0-0-3-0-0-0-1------------| 
D|--------------------------5--3--2--| 
      Pm  Pm  Pm  Pm  Pm 
E|---------------------|----------------| 
B|---------------------|----------------| 
G|-7-7--7-7-7-7-|-6-6--6-14-14-14--14---| 
D|-7-7--7-7-7-7-|-7-7--7--x--x--x---x---| 
A|-5-5--5-5-5-5-|-4-4--4-12-12-12--12---| 
D|---------------------|----------------| 
 
E|---------------------------|-----------------------| 
B|---------------------------|-----------------------| 
G|-15-15-15--15-15-15-15--15-|---18-18-18-18s19-19---| 
d|--x--x--x---x--x--x--x---x-|----x--x--x--x--x--x---| 
A|-13-13-13--13-13-13-13--13-|---16-16-16-16s17-17---| 
D|---------------------------|-----------------------| 
 
E|-----------------------------------------------------------------------------| 
B|-----------------------------------------------------------------------------| 
G|-----------------------------------------------------------------------------| 
D|-----------------------------------------------------------------------------| 
A|----------8--------7---------10---------8------------------------------------| 
E|--0-0-0-0?-0-0-0-0---0-0-0-0----0-0-0-0--------------------------------------| 
   |--Pm--|  |--Pm--|  |--Pm--|   |--Pm----------------------------------------| 
 
E|----------------------------------------------------------------------------| 
B|----------------------------------------------------------------------------| 
G|-14-14-14---12--9--10-10----14-14-14---15-14-14-12-9-10-9-------------------| 
D|- x--x--x----x--x--x--x---- -x?-x--x----x--x--x?x--x?-x-x-------------------| 
A|-12-12-12---10--7--8--8-----12-12-12---13-12-12-10-7/-8/7-------------------| 
E|----------------------------------------------------------------------------| 
 
E|-----------------------------------------------------------------------------| 
B|-----------------------------------------------------------------------------| 
G|--12-12-14-14-14/17-14-12--9-10-9--------------------------------------------| 
d|---x--x--x--x--x--x--x--x--x-x--x--------------------------------------------| 
a|--10-10/12-12-12/15-12-10--7-8--7--------------------------------------------| 
d|-----------------------------------------------------------------------------| 
 
E|-------------------------------------------------------------------------------| 
B|-------------------------------------------------------------------------------| 
G|-------------------------------------------------------------------------------| 
D|----------0------------0-------------------------------------------------------| 
A|-0-0-0-0--0---0-0-0-0--0---0-0-0-0---------------------------------------------| 
D|-0-0-0-0--0---0-0-0-0--0---0-0-0-0--5b6-5b6-5b6.5-5b6.5-5b7--5b7--5b7.5--5b8---| 
     |----Pm--|           |----Pm--|            |----Pm--------------------------| 
 
^^DO THIS 3 TIMES^^ 
 
e|-----------------------------------------------------------------------------| 
B|-----------------------------------------------------------------------------| 
G|-----------------------------------------------------------------------------| 
D|-----------------------------------------------------------------------------| 
A|-0-0-0-0--0-0--0------0------------------------------------------------------| 
E|-0-0-0-0--0-0--0?-5~--0?-8~--------------------------------------------------| 
  |--Pm--|       PM     PM 
 
^ ^ ^ ^  DO THIS 4 TIMES ^^^^^^ 
 
E||-----------------|-----------------| 
B||-----------------|-----------------| 
G||------------------|------------2-2-| 
D||-3-3-3-3-3-3-3-3-|-5-5-5-5-5-5-2-2-| 
A||-3-3-3-3-3-3-3-3-|-5-5-5-5-5-5-0-0-| 
D||-3-3-3-3-3-3-3-3-|-5-5-5-5-5-5-----| 
 
    PM|   PM--|   PM----|   PM--| ~~~~~--| 
E||------------------|-------------------| 
B||-----------------|--------------------| 
G||------2-------2---|-----4-------4-----| 
D||--------3-------3-|-------5-----------| 
A||---3-------3-----|---5-------5--------| 
D||-3-------3-------|-5-------5----------| 
 
E|-------------------|----------------------| 
B|-------------------|----------------------| 
G|--2--2-2-2-2-2-2-2-|-4-4-4-----4-4-4------| 
D|--2--2-2-2-2-2-2-2-|-5-5-5-----5-5-5------| 
A|--0--0-0-0-0-0-0-0-|-2-2-2-----2-2-2------| 
D|-------------------|----------------------| 
 
 |    PM  PM--|   PM----|       PM------------| 
E|-------------------|------------------------| 
B|-------------------|-----0h3p0-----0h3p0----| 
G|-(4)---5-------5---|------------------------| 
D|-----2---2---2---2-|---5---------5----------| 
A|-----------0-------|-2---------2------------| 
D|-------------------|------------------------| 
 
E|-----------------|-------------------------| 
B|-----------------|-------------------------| 
G|-5-5-5-5-5-5-5-5-|--9--9--9--9--9--9-------| 
D|-5-5-5-5-5-5-5-5-|--9--9--9--9--9--9-7-7---| 
A|-3-3-3-3-3-3-3-3-|--7--7--7--7--7--7-7-7---| 
D|-----------------|-------------------7-7---| 
 
 | PM|   PM--|   PM-----|      PM------------| 
E|-----------------|--------3--------3-------| 
B|-----5-------5---|-------------------------| 
G|-----------------|-----4-----4-------5-----| 
D|---5---5---5---5-|--2-----------2----------| 
A|-3-------3-------|-------------------------| 
D|-----------------|-------------------------| 
 
E|-------------------|--------------------|| 
B|-------------------|-------------------o|| 
G|-------------------|--------------------|| 
D|--7--7-7-7-7-7-5-5-|--5--5-5-5-5-5-5-5--|| 
A|--7--7-7-7-7-7-5-5-|--5--5-5-5-5-5-5-5-o|| 
D|--7--7-7-7-7-7-5-5-|--5--5-5-5-5-5-5-5--|| 
 
 |~~~PM  PM  PM          ~ 
E|-------------------|-----------------| 
B|------------------|------------------| 
G|----4---5---4---|-(4)---4---4-2------| 
D|--2---2---2-----|-----0---0-----5----| 
A|-------------------|-----------------| 
D|-------------------|-----------------| 
 
PRE SOLO___________________________________________________________________ 
The first few parts of this can be played using sweep picking or just picking each individual note 
Both sound fine thoo. 
 
 
E|-13----------------------------15-13-12-----12------12--------------------------| 
B|---13-----------------12-13-12------------13------13--15--13-15-------15-13-15--| 
G|-----12-------------12------------------14------14------12--------12------------| 
D|-------15---------12--------------------------14----------------12--------------| 
A|---------15--12-15--------------------------------------------------------------| 
D|-----------15-------------------------------------------------------------------| 
 
E|12/15--12------12-15/19------------------------------------------------------| 
B|---------13--12--------------------------------------------------------------| 
G|-----------12----------------------------------------------------------------| 
D|-----------------------------------------------------------------------------| 
A|-----------------------------------------------------------------------------| 
D|-----------------------------------------------------------------------------| 
 
 
GUITAR SOLO_________________ 
Very hard to get the second half of this solo down but once you do it?s a very fun and easy to play 
Good luck with it 
|--------------------------------------------------------------------------------| 
|-10-10-10-12-12-12-12-12-10-10-10-10-10-12-12-12-12b12.5==12-12-12-12r-12-12-12-| 
|--------------------------------------------------------------------------------| 
|--------------------------------------------------------------------------------| 
|--------------------------------------------------------------------------------| 
|--------------------------------------------------------------------------------| 
 
|-----------------------------------------------------------------------------------------| 
|-10-10-10-12b13==12-12-12-12r-12-12-12-12b14==12-12-12-12-12-12r-12-12-12-12b14==12-12r--| 
|-----------------------------------------------------------------------------------------| 
|-----------------------------------------------------------------------------------------| 
|-----------------------------------------------------------------------------------------| 
|-----------------------------------------------------------------------------------------| 
 
|-----------------------------------------------------------------------------------------| 
|-12-12-14b14.5==14-14-14-14r-12-12-12-14b15==14-14-14-14-14-14-14r-14-14-14-14b16==14-14-| 
|-----------------------------------------------------------------------------------------| 
|-----------------------------------------------------------------------------------------| 
|-----------------------------------------------------------------------------------------| 
|-----------------------------------------------------------------------------------------| 
 
|------------------------------------------------------------------------------------------------------| 
|-14-14r-14-14-16b17==16-16-16-16-16r-16-16-16-18b18.5-18-18b19-18-18b20-20-20b20.5-20-20b21-20-20b22--| 
|------------------------------------------------------------------------------------------------------| 
|------------------------------------------------------------------------------------------------------| 
|------------------------------------------------------------------------------------------------------| 
|------------------------------------------------------------------------------------------------------| 
 
|-17-18-17-17----17-18-17-17----17-18-17-17----17-18-17-17-18-| 
|-------------18-------------18-------------18----------------| 
|-------------------------------------------------------------| 
|-------------------------------------------------------------| 
|-------------------------------------------------------------| 
|-------------------------------------------------------------| 
 
|-17-18-17-17-------------------------------------------| 
|-------------18s14-14----14-15-14-14-------------------| 
|----------------------14-------------14-14-15-14----14-| 
|-------------------------------------------------17----| 
|-------------------------------------------------------| 
|-------------------------------------------------------| 
 
|-------------------------------------------------| 
|-------------14-17-14----------------14-17-14----| 
|-14-15-14-------------14-14-15-14-------------14-| 
|----------17----------------------17-------------| 
|-------------------------------------------------| 
|-------------------------------------------------| 
 
|-------------18-21-18----------------------------| 
|----14-17-14----------20-17-20-17-------17-------| 
|-14-------------------------------18-18----18----| 
|----------------------------------------------19-| 
|-------------------------------------------------| 
|-------------------------------------------------| 
 
|--------------------------------|----------------------------------| 
|-------------------15--17-18-15-|---------------------17--18-20-17-| 
|-17b19--------------------------|-19b21----------------------------| 
|--------------------------------|----------------------------------| 
|--------------------------------|----------------------------------| 
|--------------------------------|----------------------------------| 
 
|------------------------------|----------------20-22-23-22-20-22---| 
|------------------------------|-20----------20---------------------| 
|-21b22------------------------|----19----19------------------------| 
|------------------------------|-------20---------------------------| 
|------------------------------|------------------------------------| 
|------------------------------|------------------------------------| 
 
E|----------------------------------------------------------------------------| 
B|----------------------------------------------------------------------------| 
G|-14-14-14---12--9--10-10----14-14-14---15-14-14-12-9-10-9-------------------| 
D|- x--x--x----x--x--x--x---- -x?-x--x----x--x--x?x--x?-x-x-------------------| 
A|-12-12-12---10--7--8--8-----12-12-12---13-12-12-10-7/-8/7-------------------| 
E|----------------------------------------------------------------------------| 
 
 
E|-----------------------------------------------------------------------------| 
B|-----------------------------------------------------------------------------| 
G|--12-12-14-14-14/17-14-12--9-10-9--------------------------------------------| 
d|---x--x--x--x--x--x--x--x--x-x--x--------------------------------------------| 
a|--10-10/12-12-12/15-12-10--7-8--7--------------------------------------------| 
d|-----------------------------------------------------------------------------| 
 
|--------------------|-----------------| 
|--------------------|-----------------| 
|-----------------3--|-(3)-------------| 
|-8--8--8-8--8--8-3--|-(3)-7-7--7--7-7-| 
|-5-(5)-5-5-(5)-5-3--|-(3)-3-3--3--3-3-| 
|-5-(5)-5-5-(5)-5-3--|-(3)-3-3--3--3-3-| 
 
 
|-------------------------|-------------------| 
|-------------------------|-------------------| 
|-------------------------|-------------------| 
|-10-10--10-10-10--10-10--|-(10)-12-12--12----| 
|--7-(7)--7--7-(7)--7--8--|--(8)--8--8---8----| 
|--7-(7)--7--7-(7)--7--8--|--(8)--8--8---8----| 
 
|--------------------|------------------| 
|--------------------|------------------| 
|-----------------3--|------------------| 
|-8--8--8-8--8--8-3--|--7-7--7--7-7-----| 
|-5-(5)-5-5-(5)-5-3--|--3-3--3--3-3-----| 
|-5-(5)-5-5-(5)-5-3--|--3-3--3--3-3-----| 
  
 
  
 

	  

No existe una video leccione para esta canción

request
LosAcordes
Buscar
auto avanzar rasgueos aumentar disminuir cambiar color esconder acordes gráficos
losacordes exhibir acordes losacordes youTube video losacordes ocultar tabs losacordes ir hacia arriba losacordes