Avenged Sevenfold

Início > Avenged Se... > acordes

4 00 Am Tablatura

Avenged Sevenfold

Dificultad:Ningún gradoNingún grado

ubirbomfim

tuner correct add songbook print version text version salvar en e-mail
acordesukuleletablaturabajobateríaarmónicaflautacavacopiano Guitar Pro
acordes

4 00 Am

Tono:  A Más
4 00 Am Key EE
4 00 Am Key FF
4 00 Am Key F#F#
4 00 Am Key GG(Disminuir uno tono)
4 00 Am Key G#G#(Disminuir uno semi-tono)
4 00 Am Key AA(tono original)
4 00 Am Key A#A#(Aumentar uno semi-tono)
4 00 Am Key BB(Aumentar uno tono)
4 00 Am Key CC
4 00 Am Key C#C#
4 00 Am Key DD
4 00 Am Key D#D#
	  4 00 am. Avenged Sevenfold 

This is an updated version of 4:00 am by A7X. I am not amazing at tabbing stuff,so  
please bear with me. I am a rhythm guitarist, so this tab will cover ZACKY  
VENGEANCE and GUITAR 3, NOT SYNYSTER GATES. look at other tabs for those. 
With your help this tab can be finished to a top quality! 

INTRO (ZACKY and GUITAR 3) 
e|-------------------------------------------------------------| 
B|-------------------------------------------------------------| 
G|-------------------------------------------------------------| 
D|------------------7------------------------------------------|   x2 
A|--------5--0----------8--------------------------------------| 
D|------------------------------0--0--0------------------------| 
                            pm  .  .  .   

e|-------------------------------------------------------------| 
B|-------------------------------------------------------------| 
G|-------------------------------------------------------------| 
D|--------5--0------8---5--------------------------------------|   x2 
A|-------------------------------------------------------------| 
D|------------------------------0--0--0------------------------| 
                            pm  .  .  .   

e|-----------------------------------------------------------------| 
B|-----------------------------------------------------------------| 
G|-----------------------------------------------------------------| 
D|---------------7-----------------------------------5-------------| 
A|--------5--0-------8---5-------5---4-------4---7-------7---4---7-| 
D|---------------------------7-----------7-------------------------| 

VERSE x2 (ZACKY and GUITAR 3) 
e|-------------------------------------------------------------------------| 
B|-------------------------------------------------------------------------| 
G|-------------------------------------------------------------------------| 
D|-0---0-------0---0-------5---5---5/6-5---5---5/6-0---0-------2---2-------| 
A|-0-0-0-0-0-0-0-0-0-0-0-0-5-5-5-5-5/6-5-5-5-5-5/6-0-0-0-0-0-0-2-2-2-2-2-2-| 
D|-0-0-0-0-0-0-0-0-0-0-0-0-5-5-5-5-5/6-5-5-5-5-5/6-0-0-0-0-0-0-2-2-2-2-2-2-| 
p.m  .   . . .   .   . . .   .   .       .   .       .   . . .   .   . . .  

e|-----------------------------------------------------------------| 
B|-----------------------------------------------------------------| 
G|-----------------------------------------------------------------| 
D|-----------------------------------------------------------------| 
A|-----------------5---------------5-------------------8-7-6~------| 
D|--0-0-5b7--0-0-7---0-0-5b7-0-0-7---0-0-5b7-0-0-7-7-8--------3-2--| 


PRE Chorus (ZACKY and GUITAR 3) 
e|----------------------------|       on the second time instead of:                   
B|----------------------------|     
G|------5----4----3----2------|       G|-2-|                    
D|-0----5----4----3----2------|  x2   D|-2-|              D|-/7-| 
A|-0----3----2----1----0------|       A|-0-|    do this:  A|-/7-| 
D|-0--------------------------|       D|---|              D|-/7-| 

Chorus (ZACKY and GUITAR 3) 
e|-------------------------| 
B|---------------- --------| 
G|-------------------------| 
D|--3-------7-------8------|       x2 
A|--3-------7-------8------| 
D|--3-------7-------8------| 

THEN DO THIS: 
e|-----------------------------------| 
B|-----------------------------------| 
G|-----------5-----------------------| 
D|---3-------5--------1~-------------| 
A|---3-------3--------1~-------------| 
D|---3----------------1~-------------| 

INTRO RIFF 

VERSE 

PRE Chorus 

Chorus 

INTERLUDE - ZACKY 
GUITAR 3 PLAYS THIS RIFF BELOW 4 TIMES 
e|-------------------------------------------| 
B|-------------------------------------------| 
G|-------------------------------------------| 
D|-------------------------------------------|  x2 
A|-------------------------------------------| 
D|-0-12-11-10-0-10-9-8-7-7-7-7-6-6-6-6-------| 
                    pm . . . . . . . . 

e|-------------------------------------------| 
B|-------------------------------------------| 
G|----14-13-12----12-11-10-------------------| 
D|-12----------12----------------------------|  x2 
A|-------------------------------------------| 
D|-------------------------7-7-7-7-6-6-6-6---| 
                        pm . . . . . . . . 

BRIDGE - ZACKY 
e|----------------------------------------------| 
B|-15/18~---13/18~---11/18~---13/17~------------| 
G|----------------------------------------------| 
D|----------------------------------------------|  x2 
A|----------------------------------------------| 
D|----------------------------------------------| 

GUITAR 3 
e|----------------------------------| 
B|----------------------------------| 
G|----------------------------------| 
D|-8~----7~----5~----3--2~----------|  x2 
A|-8~----7~----5~----3--2~----------| 
D|-8~----7~----5~----3--2~----------| 

ZACKY 
e|-13~-13-15-17-15~-15-17-18-16~-16-18-20-18~-18-20-21---| 
B|-------------------------------------------------------| 
G|-------------------------------------------------------| 
D|-------------------------------------------------------| 
A|-------------------------------------------------------| 
D|-------------------------------------------------------| 

GUITAR 3 
e|-------------------------------------------------------| 
B|-------------------------------------------------------| 
G|-7---------7---------7-----6---------6---------6-------| 
D|-7---------7---------7-----6---------6---------6-------| 
A|-5-5-5-5-5-5-5-5-5-5-5-5-5-4-4-4-4-4-4-4-4-4-4-4-4-4---| 
D|-------------------------------------------------------| 
pm   . . . .   . . . .   . .   . . . .   . . . .   . . 

(Carrying on from above^) 
e|-------------------------------------------------------| 
B|-------------------------------------------------------| 
G|-------------------------------------------------------| 
D|-3---------3---------3-----2---------2---------2-------| 
A|-3---------3---------3-----2---------2---------2-------| 
D|-3-3-3-3-3-3-3-3-3-3-3-3-3-2-2-2-2-2-2-2-2-2-2-2-2-2---| 
pm   . . . .   . . . .   . .   . . . .   . . . .   . . 

ZACKY                             
e|-20-16----------------16--|        
B|-------18----------18-----|    
G|----------17----17--------|        
D|-------------18-----------|  x2    
A|--------------------------|        
D|--------------------------| 

ZACKY 
(I think this sweep is wrong. The notes sound write, it's just hard to play) 
e|-20-15----------------15--| 
B|-------17----------17-----| 
G|----------17----17--------| 
D|-------------17-----------|  x2 
A|--------------------------| 
D|--------------------------| 

e|---------------------------------------------------| 
B|---------------------------------------------------| 
G|---------------------------------------------------| 
D|-----3-----3-----3-----3-----2-----2-----2-----2---| 
A|-----3-----3-----3-----3-----2-----2-----2-----2---| 
D|-3-3-3-3-3-3-3-3-3-3-3-3-2-2-2-2-2-2-2-2-2-2-2-2---| 
pm . .   . .   . .   . .   . .   . .   . .   . . 

ZACKY 
e|-20-16----------------16--|        
B|-------18----------18-----|    
G|----------17----17--------|        
D|-------------18-----------|  x2    
A|--------------------------|        
D|--------------------------| 

ZACKY 
e|-20-15----------------15--| 
B|-------17----------17-----| 
G|----------17----17--------| 
D|-------------17-----------|  x2 
A|--------------------------| 
D|--------------------------| 

GUITAR 3 (Tremolo pick the palm muted 3's and 2's) 
e|-------------------------------------------| 
B|-------------------------------------------| 
G|-------------------------------------------| 
D|---------3---------3---------3---------3---| 
A|---------3---------3---------3---------3---| 
D|-3-3-3-3-3-3-3-3-3-3-3-3-3-3-3-3-3-3-3-3---| 
pm . . . .   . . . .   . . . .   . . . . 

(Carrying on from above^) 
e|-------------------------------------------| 
B|-------------------------------------------| 
G|-------------------------------------------| 
D|---------2---------2---------2---------2---| 
A|---------2---------2---------2---------2---| 
D|-2-2-2-2-2-2-2-2-2-2-2-2-2-2-2-2-2-2-2-2---| 
pm . . . .   . . . .   . . . .   . . . . 

CAN'T WORK OUT THIS LAST SWEEP, HELP? 

GUITAR 3  
e|----------| 
B|----------| 
G|----------| 
D|--8~--7~--| 
A|--8~--7~--| 
D|--8~--7~--| 

PRE SOLO - ZACKY 
e|-------------------------------| 
B|-------------------------------| 
G|-------------------------------| 
D|-------------------------------| 
A|--8~-8--7~-7--10~-10--5~-5--4~-| 
D|-------------------------------| 

GUITAR 3 
e|--------------------------------------------------------------| 
B|--------------------------------------------------------------| 
G|---------7-----------5-----------4-----------3~---------2~----| 
D|---------7-----------5-----------4-----------3~---------2~----| 
A|-5-5-5-5-5---3-3-3-3-3---2-2-2-2-2---1-1-1-1-1~-0-0-0-0-0~----| 
D|--------------------------------------------------------------| 
pm . . . .     . . . .     . . . .     . . . .    . . . . 

FOR THE SOLO (ZACKY AND GUITAR 3), PLAY PRE Chorus 

Chorus 'SOLO' - ZACKY 
e|----------------------------------------------------| 
B|----------------------------------------------------| 
G|-14-14/10/14--14-15-17-17-19-15-14-14-15------------| 
D|-----------------------------------------12-14-15~--| 
A|----------------------------------------------------| 
D|----------------------------------------------------| 

ZACKY 
e|------------------------------------------| 
B|-----------------------------------/18~---| 
G|-14-14/10/14--14-15-17-17-19-15-14--------| 
D|------------------------------------------| 
A|------------------------------------------| 
D|------------------------------------------| 

ZACKY 
e|-20-(18)/17-18-20--------| 
B|------------------/20----| 
G|-------------------------| 
D|-------------------------|   
A|-------------------------| 
D|-------------------------| 

For the Chorus 'SOLO', GUITAR 3 plays the normal Chorus. 

I HAVE NO IDEA ABOUT THE NEXT PART FOR ZACKY BEFORE THE PRE Chorus.  

GUITAR 3 
e|--------------------------------------------------| 
B|--------------------------------------------------| 
G|--------------------------------------------------| 
D|-------------12-----------8~---------7~-----------| 
A|-------------12-----------8~---------7~-----------| 
D|-12-12-12-12-12---8-8-8-8-8~-7-7-7-7-7~-----------| 
pm  .  .  .  .      . . . .    . . . . 

PRE Chorus 

Chorus 

THEN: 
e|-----------------------------------| 
B|-----------------------------------| 
G|-----------5-----------------------| 
D|---3-------5--------1~-------------|  x2 
A|---3-------3--------1~-------------| 
D|---3----------------1~-------------| 


Finish on: 
END 
e|-----------------------------------------------------------------| 
B|-----------------------------------------------------------------| 
G|-----------------------------------------------------------------| 
D|---------------7-----------------------------------5-------------| 
A|--------5--0-------8---5-------5---4-------4---7-------7---4---7-| 
D|---------------------------7-----------7-------------------------| 

ORDER OF PLAY: 
INTRO  
VERSE 
PRE CHORUS 
CHORUS 
INTRO 
VERSE 
PRE CHORUS 
CHORUS  
INTERLUDE 
BRIDGE 
PRE SOLO 
SOLO (ZACKY and GUITAR 3 play PRE CHORUS ) 
CHORUS  'SOLO' (GUITAR 3 plays CHORUS ) 
PRE CHORUS  
CHORUS  
END 

THANK YOU!! 
	  

No existe una video leccione para esta canción

request
LosAcordes
Buscar
auto avanzar rasgueos aumentar disminuir cambiar color esconder acordes gráficos
losacordes exhibir acordes losacordes youTube video losacordes ocultar tabs losacordes ir hacia arriba losacordes