Avalanch

Início > Avalanch > acordes

Aquí Estaré Tablatura

Avalanch

Dificultad:ExpertoExperto

marcnagel

tuner correct add songbook print version text version salvar en e-mail
acordesukuleletablaturabajobateríaarmónicaflautacavacopiano Guitar Pro
acordes

Aquí Estaré

	  AQUI ESTARE (AVALANCH) 
TRANSCRITO. DANIEL BENITEZ 


P  PULL OF 
H  HAMMER ON 
'  VIBRATO 
@ ...  LOCO 
PM... PALM MUTE 
TR  TRILL 
^  BEND 
R o r RELASE BEND 
TREMM.... TREMOLO PICKING 




INTRO 

GUITARRA I (GI) 
Eb----------------------------I 
Bb-15'-14'-151515171717151415-I 
Gb----------------------------I  
Db----------------------------I 
Ab----------------------------I 
Eb----------------------------I 

GUITARRA 2  (GII) 
Eb-14'-12'-141414151515141214-I 
Bb----------------------------I 
Gb----------------------------I 
Db----------------------------I 
Ab----------------------------I 
Eb----------------------------I 

G I 
Eb---------------------------------------------I 
Bb-15-15H17-15'-14H15P14-15-15H17-15'-17P15P14-I 
Gb---------------------------------------------I 
Db---------------------------------------------I 
Ab---------------------------------------------I 
Eb---------------------------------------------I 

G II 
Eb-14-14H15-14'-12H14P12-14-14H15-14'-15P14P12--I 
Bb----------------------------------------------I 
Gb----------------------------------------------I 
Db----------------------------------------------I 
Ab----------------------------------------------I 
Eb----------------------------------------------I 

GUITARRAS JUNTAS (GJ) 
Eb---------------------------------------------------------------------I 
Bb---------------------------------------------------------------------I 
Gb------------------4----------------------------------7---------------I 
Db-4----------------4-----------------7----------------7---------------I 
Ab-4----------------2-22-2-22-2-22-2--7----------------5-55-5-55-5-55-5I 
Eb-2-22-2-22-2-22-2-------------------5-55-5-55-5-55-5-----------------I 
PM   ..............   ..............    ..............   .............. 

Eb-----------------------------------I 
Bb-----------------------------------I 
Gb------------------4----------------I 
Db-4----------------4----------------I 
Ab-4----------------2-22-2-22-2-22-2-I 
Eb-2-22-2-22-2-22-2------------------I 


GI 
Eb------------------------------------------------------------------I 
Bb--------15H17-15H17P15-14--------15--------17-15H17-15H17P15-14'--I 
Gb-18-14--------------------------------18-14-----------------------I 
Db----------------------------17-14---------------------------------I 
Ab------------------------------------------------------------------I 
Eb------------------------------------------------------------------I 

G2 
Eb--------14H15-14H15P14-12--------12--------15-14H15-14H15P14-12'--I 
Bb-17-12--------------------------------17-12-----------------------I 
Gb----------------------------16-12---------------------------------I 
Db------------------------------------------------------------------I 
Ab------------------------------------------------------------------I 
Eb------------------------------------------------------------------I 

GI 
Eb---------------------------------------------I 
Bb-------14H15-14H15P14-12---------------------I 
Gb-16-11-------------------------16-14'''''----I 
Db-------------------------16-12---------------I 
Ab---------------------------------------------I 
Eb---------------------------------------------I 

GII 
Eb-------12H14-12H14P12-10---------------------I 
Bb-15-10-------------------------15--14'''''---I 
Gb-------------------------14-11---------------I 
Db-------------------------------------------X/I 
Ab-------------------------------------------X/I 
Eb-------------------------------------------X/I 


VERSO 1 (guitarras juntas) 

Ha pasado tanto tiempo 

desde que comencé a andar 

por los caminos del sonido 

poderoso del metal.  


Eb--------------------------------------------I 
Bb--------------------------------------------I 
Gb-7------------------------------------------I 
Db-7--------------------7---------------------I 
Ab-55555555555555555555-7---------------------I 
Eb----------------------55555555555555555555--I 
PM  ...................  ................... 
     Aún recuerdo a los ami___go___s 


Eb--------------------------------------------I 
Bb--------------------------------------------I 
Gb-7------------------------------------------I 
Db-7--------------------7---------------------I 
Ab-55555555555555555555-7---------------------I 
Eb----------------------55555555555555555555--I 
PM ....................  ................... 
     que comenzaron       cuando yo 





Eb--------------------------------------------I 
Bb--------------------------------------------I 
Gb-4------------------------------------------I 
Db-4--------------------4---------------------I 
Ab-22222222222222222222-4---------------------I 
Eb----------------------22222222222222222222--I 
PM ....................  ................... 
     uno tras otro       cayeron, 



Eb----------------------------------I 
Bb----------------------------------I 
Gb----------------------------------I 
Db---5------------7-----------------I 
Ab---5------------7-----------------I 
Eb---3------------5-----------------I 
   perdieron toda ilusión. 

Eb-----------------------------------------------I 
Bb-----------------------------------------------I 
Gb-----------------------4-----2-----------------I 
Db-4---------------------4-----2-----------------I 
Ab-4---------------------22222-00000-5-----4-----I 
Eb-22222222222222222222--------------33333-22222-I 
PM  ...................   ....  ....  ....  .... 
   Su caída              pesó en mi corazón 



Eb----------------------------------I 
Bb----------------------------------I 
Gb----------------------------------I 
Db-2-----------------------------7--I 
Ab-2-----------------------------7--I 
Eb-0-00-0-00-0-00-0-00-0-00-0-00-5--I 
PM  ............................ 
   pero su fuego perdura en mi interior. 


Eb-----------------------------------------------I 
Bb-----------------------------------------------I 
Gb-----------------------4-----2-----------------I 
Db-4---------------------4-----2-----------------I 
Ab-4---------------------22222-00000-5-----4-----I 
Eb-22222222222222222222--------------33333-22222-I 
PM  ...................   ....  ....  ....  .... 
    Se rindieron,        su alma se quebró, 

Eb---------------------------------------I 
Bb---------------------------------------I 
Gb---------------------------------------I 
Db-2---------------------7---------------I 
Ab-2---------------------7---------------I 
Eb-0-0000000000000000000-55555555555555--I 
PM  ..................... ................ 
 sólo por ellos no me rendiré yo 

Eb----------------------I 
Bb----------------------I 
Gb-7--------------------I 
Db-7----------------7---I 
Ab-5----------------7---I 
Eb------------------5---I 
   Y van pasando los años 




Eb----------------------I 
Bb----------------------I 
Gb-7--------------------I 
Db-7----------------7---I 
Ab-5----------------7---I 
Eb------------------5---I 
   y yo aún continuo aquí, 

Eb----------------------I 
Bb----------------------I 
Gb-4--------------------I 
Db-4----------------4---I 
Ab-2----------------4---I 
Eb------------------2---I 
   un estandarte olvidado 

Eb----------------------I 
Bb----------------------I 
Gb----------------------I 
Db-5-----------7--------I 
Ab-5-----------7--------I 
Eb-3-----------5--------I 
  orgulloso de existir. 

Eb--------------------------------------------I 
Bb--------------------------------------------I 
Gb-7------------------------------------------I 
Db-7--------------------7---------------------I 
Ab-55555555555555555555-7---------------------I 
Eb----------------------55555555555555555555--I 
PM  ...................  ................... 
     Se marcharon mis amigos 




Eb--------------------------------------------I 
Bb--------------------------------------------I 
Gb-7------------------------------------------I 
Db-7--------------------7---------------------I 
Ab-55555555555555555555-7---------------------I 
Eb----------------------55555555555555555555--I 
PM ....................  ................... 
     y llegaron muchos más 





Eb--------------------------------------------I 
Bb--------------------------------------------I 
Gb-4------------------------------------------I 
Db-4--------------------4---------------------I 
Ab-22222222222222222222-4---------------------I 
Eb----------------------22222222222222222222--I 
PM ....................  ................... 
     todo ha ido cambiando 



Eb----------------------------------I 
Bb----------------------------------I 
Gb----------------------------------I 
Db---5------------7-----------------I 
Ab---5------------7-----------------I 
Eb---3------------5-----------------I 
   y yo continuo igual. 

Eb-----------------------------------------------I 
Bb-----------------------------------------------I 
Gb-----------------------4-----2-----------------I 
Db-4---------------------4-----2-----------------I 
Ab-4---------------------22222-00000-5-----4-----I 
Eb-22222222222222222222--------------33333-22222-I 
PM  ...................   ....  ....  ....  .... 
   Ha cambiado la forma de pensar 


Eb----------------------------------I 
Bb----------------------------------I 
Gb----------------------------------I 
Db-2-----------------------------7--I 
Ab-2-----------------------------7--I 
Eb-0-00-0-00-0-00-0-00-0-00-0-00-5--I 
PM  ............................ 
   pero en el fondo todo sigue igual 


Eb-----------------------------------------------I 
Bb-----------------------------------------------I 
Gb-----------------------4-----2-----------------I 
Db-4---------------------4-----2-----------------I 
Ab-4---------------------22222-00000-5-----4-----I 
Eb-22222222222222222222--------------33333-22222-I 
PM  ...................   ....  ....  ....  .... 
    Unos llegan y otros se van 


Eb---------------------------------------I 
Bb---------------------------------------I 
Gb---------------------------------------I 
Db-2---------------------7---------------I 
Ab-2---------------------7---------------I 
Eb-0-0000000000000000000-55555555555555--I 
PM  ..................... ................ 
 pero amigo, yo estaré hasta el final. 



CORO 

Eb--------------------------------------------I 
Bb--------------------------------------------I 
Gb-7------------------------------------------I 
Db-7--------------------7---------------------I 
Ab-55555555555555555555-7---------------------I 
Eb----------------------55555555555555555555--I 
PM  ...................  ................... 
    Me vaya mal            o vaya bien 


Eb--------------------------------------------I 
Bb--------------------------------------------I 
Gb-7------------------------------------------I 
Db-7--------------------7---------------------I 
Ab-55555555555555555555-7---------------------I 
Eb----------------------55555555555555555555--I 
PM ....................  ................... 
     siempre sabrás    que aquí estaré. 


Eb--------------------------------------------------------I 
Bb--------------------------------------------------------I 
Gb-7------------------------------------------------------I 
Db-7--------------------5--------------7------------------I 
Ab-5555555555555555555555--------------7------------------I 
Eb----------------------3333333333333335555555555---------I 
PM ....................  ................... 

   Aquí estaré...           


Eb--------------------------------------------I 
Bb--------------------------------------------I 
Gb-7------------------------------------------I 
Db-7--------------------7---------------------I 
Ab-55555555555555555555-7---------------------I 
Eb----------------------55555555555555555555--I 
PM  ...................  ................... 
    Me vaya mal            o vaya bien 


Eb--------------------------------------------I 
Bb--------------------------------------------I 
Gb-7------------------------------------------I 
Db-7--------------------7---------------------I 
Ab-55555555555555555555-7---------------------I 
Eb----------------------55555555555555555555--I 
PM ....................  ................... 
     siempre sabrás    que aquí estaré. 


Eb--------------------------------------------------------I 
Bb--------------------------------------------------------I 
Gb-7------------------------------------------------------I 
Db-7--------------------5--------------7------------------I 
Ab-5555555555555555555555--------------7------------------I 
Eb----------------------3333333333333335555555555---------I 
PM ....................  ................... 

   Aquí estaré...           

G I 
Eb---------------------------------------------I 
Bb-15-15H17-15'-14H15P14-15-15H17-15'-17P15P14-I 
Gb---------------------------------------------I 
Db---------------------------------------------I 
Ab---------------------------------------------I 
Eb---------------------------------------------I 

G II 
Eb-14-14H15-14'-12H14P12-14-14H15-14'-15P14P12--I 
Bb----------------------------------------------I 
Gb----------------------------------------------I 
Db----------------------------------------------I 
Ab----------------------------------------------I 
Eb----------------------------------------------I 



LUEGO DE ESTO VA EL SOLO .. QUE NO TENGO TABULADO AQUI.. DESPUES DEL SOLO VIENE CASI 
UN SEGUNDO SOLO QUE SE REALIZA TODO CON TREMMOLO PICKING QUE VA ASI: 



TREM............................................. 
Eb----12-14-15-17-15-14-12--12-14-15-17-15-14-12-I 
Bb--15--------------------15---------------------I 
Gb-----------------------------------------------I 
Db-----------------------------------------------I 
Ab-----------------------------------------------I 
Eb-----------------------------------------------I 


TREM...................................... 
Eb----7-9-10-12-10-9-7--9-10-12-14-12-10-9---I 
Bb--10----------------12---------------------I 
Gb-------------------------------------------I 
Db-------------------------------------------I 
Ab-------------------------------------------I 
Eb-------------------------------------------I 


TREM............................................. 
Eb----12-14-15-17-15-14-12--12-14-15-17-15-14-12-I 
Bb--15--------------------15---------------------I 
Gb-----------------------------------------------I 
Db-----------------------------------------------I 
Ab-----------------------------------------------I 
Eb-----------------------------------------------I 


TREM...................................... 
Eb----7-9-10-12-10-9-7--9-10-12-14-12-10-9--14''-I 
Bb--10----------------12--------------------15''-I 
Gb-----------------------------------------------I 
Db-----------------------------------------------I 
Ab-----------------------------------------------I 
Eb-----------------------------------------------I 


Eb-------------------------------------------------I 
Bb-------------------------------------------------I 
Gb-5-----------------------------------------------I 
Db-5-------------------5---------------------------I 
Ab-7-------------------5---------------------------I 
Eb---------------------7---------------------------I 

    Negros nubarrones amenazan mi interior 



Eb-------------------------------------------I 
Bb-------------------------------------------I 
Gb-------------------------------------------I 
Db-4--------------------------------5------7-I 
Ab-4--------------------------------5------7-I 
Eb-2--------------------------------3------5-I 

   sembrando la eterna duda si estará bien o no.  (Y EL MUNDO) 



Eb-----------------------------------------------------I 
Bb-----------------------------------------------------I 
Gb-7---------------------------------------------------I 
Db-7------------------------5--------------------------I 
Ab-555555555555555555555555-55555555555555555555555555-I 
Eb--------------------------7--------------------------I 
PM  .......................  ......................... 
    Que el mundo cambie y yo siga mi ideal. 



Eb-------------------------------------------------------I 
Bb-------------------------------------------------------I 
Gb-------------------------------------------------------I 
Db-4-------------------------------5----------7----------I 
Ab-4-------------------------------5----------7----------I 
Eb-2222222222222222222222222222222-3333333333-5555555555-I 
PM  ..............................  .........  ......... 
  no hay duda, ninguna, lo que está bien siempre estará. 



Eb----------------------I 
Bb----------------------I 
Gb----------------------I 
Db-5--------7-----------I 
Ab-5--------7-----------I 
Eb-33333333-5555555555--I 

   Fiel hasta el final 

Eb----------------------I 
Bb----------------------I 
Gb----------------------I 
Db-5--------7-----------I 
Ab-5--------7-----------I 
Eb-33333333-5555555555--I 

    a mi libertad 



CORO 

Eb--------------------------------------------I 
Bb--------------------------------------------I 
Gb-7------------------------------------------I 
Db-7--------------------7---------------------I 
Ab-55555555555555555555-7---------------------I 
Eb----------------------55555555555555555555--I 
PM  ...................  ................... 
    Me vaya mal            o vaya bien 


Eb--------------------------------------------I 
Bb--------------------------------------------I 
Gb-7------------------------------------------I 
Db-7--------------------7---------------------I 
Ab-55555555555555555555-7---------------------I 
Eb----------------------55555555555555555555--I 
PM ....................  ................... 
     siempre sabrás    que aquí estaré. 


Eb--------------------------------------------------------I 
Bb--------------------------------------------------------I 
Gb-7------------------------------------------------------I 
Db-7--------------------5--------------7------------------I 
Ab-5555555555555555555555--------------7------------------I 
Eb----------------------3333333333333335555555555---------I 
PM ....................  ................... 

   Aquí estaré...           


Eb--------------------------------------------I 
Bb--------------------------------------------I 
Gb-7------------------------------------------I 
Db-7--------------------7---------------------I 
Ab-55555555555555555555-7---------------------I 
Eb----------------------55555555555555555555--I 
PM  ...................  ................... 
    Me vaya mal            o vaya bien 


Eb--------------------------------------------I 
Bb--------------------------------------------I 
Gb-7------------------------------------------I 
Db-7--------------------7---------------------I 
Ab-55555555555555555555-7---------------------I 
Eb----------------------55555555555555555555--I 
PM ....................  ................... 
     siempre sabrás    que aquí estaré. 


Eb--------------------------------------------------------I 
Bb--------------------------------------------------------I 
Gb-7------------------------------------------------------I 
Db-7--------------------5--------------7------------------I 
Ab-5555555555555555555555--------------7------------------I 
Eb----------------------3333333333333335555555555---------I 
PM ....................  ................... 

I   Aquí estaré...           

Eb--------------------------------------------I 
Bb--------------------------------------------I 
Gb-9------------------------------------------I 
Db-9--------------------9---------------------I 
Ab-77777777777777777777-9---------------------I 
Eb----------------------7777777777777777777---I 
PM  ...................  ................... 
    Me vaya mal            o vaya bien 


Eb--------------------------------------------I 
Bb--------------------------------------------I 
Gb-9------------------------------------------I 
Db-9--------------------9---------------------I 
Ab-77777777777777777777-9---------------------I 
Eb----------------------7777777777777777777---I 
PM ....................  ................... 
     siempre sabrás    que aquí estaré. 


Eb--------------------------------------------------------I 
Bb--------------------------------------------------------I 
Gb-9------------------------------------------------------I 
Db-9--------------------7--------------9------------------I 
Ab-7777777777777777777777--------------9------------------I 
Eb-----------------------555555555555557777777777---------I 
PM ....................  .............. ......... 





Y ASI SE TERMINA ESTA EXCELENTE CANCION.. 
EN REALDAD ESTA MUY FACIL.. Y 
NO SE PREOCUPEN POR EL SOLO QUE PROXIMAMANETE LO  
SUBIERE 
SI TEINEN ALGUNA INQUIETUD.. CONECTENSENCON MIGO 
EN [email protected]
	  

No existe una video leccione para esta canción

request
Aumentar uno tonoAumentar uno tono
Aumentar uno semi-tonoAumentar uno semi-tono
Disminuir uno semi-tonoDisminuir uno semi-tono
Disminuir uno tonoDisminuir uno semi-tono
LosAcordes
Buscar
auto avanzar rasgueos aumentar disminuir cambiar color esconder acordes gráficos
losacordes exhibir acordes losacordes youTube video losacordes ocultar tabs losacordes ir hacia arriba losacordes