Attaque 77

Início > Attaque 77 > acordes

El Camino Tablatura

Attaque 77

Dificultad:Ningún gradoNingún grado

paulantunes

tuner correct add songbook print version text version salvar en e-mail
acordesukuleletablaturabajobateríaarmónicaflautacavacopiano Guitar Pro
acordes

El Camino

(Demian Pertusi)

	  aka esta la intro igual komo la hace mariano 

--2-2-2-0---0-0---0-0-0-0---0-0---- 
--0-0-0-0---0-0---2-2-2-0---0-0---- 
--1-1-1-1---1-1---1-1-1-1---1-1---- 
--2-2-2-2---2-2---2-2-2-2---2-2---- 
--2-2-2-2---2-2---2-2-2-2---2-2---- 
--0-0-0-0---0-0---0-0-0-0---0-0---- 

Repite eso un par de veces y despues ace 

--0-0------ 
--0-0------ 
--2-2------ 
--2-2------ 
--2-2------ 
--0-0------
	  

No existe una video leccione para esta canción

request
LosAcordes
Buscar
auto avanzar rasgueos aumentar disminuir cambiar color esconder acordes gráficos
losacordes exhibir acordes losacordes youTube video losacordes ocultar tabs losacordes ir hacia arriba losacordes