Atmosfera de Adoração

Início > Atmosfera ... > acordes

Há poder neste nome Tablatura

Atmosfera de Adoração

Dificultad:PrincipiantePrincipiante

LEVIS

tuner correct add songbook print version text version salvar en e-mail
acordesukuleletablaturabajobateríaarmónicaflautacavacopiano Guitar Pro
acordes

Há poder neste nome

	         E 
e {----7----------------------------------------}  
B {-------7-9-9--9-7-----7--9--10-10-10--9-10---} 
G {--------------------9------------------------} 
D {---------------------------------------------} 
A {---------------------------------------------} 
E {---------------------------------------------} 
  
 
e {---------------------------------------------------------} 
B {--9-10-12--12---14-16-17-17-17---------------------------} 
G {------------------------------------------------14-14----} 
D {---------------------------------------------------------} 
A {---------------------------------------------------------} 
E {---------------------------------------------------------} 
 
 
E|---------------------------------------------------------}  
B|--7-9-10--9------------9-10-12-10-9----------------------}  
G|-----------------9-11-----------------------8-9-11-11-8--}  
D|---------------------------------------------------------}  
A|---------------------------------------------------------}  
E|---------------------------------------------------------}  
 
 
e {------------------------------------------} 
B {---------- -------------------------------} 
G {-----6--6-8-------------------------------} 
D {--9--9-------------9----------------------} 
A {------------------------------------------} 
E {------------------------------------------} 
 
 
E|-------------9-11-12-14-14-14--------------} 
B|----7-9-10---------------------------------} 
G|-------------------------------------------} 
D|-------------------------------------------} 
A|-------------------------------------------} 
E|-------------------------------------------} 
 
 

	  

No existe una video leccione para esta canción

request
Aumentar uno tonoAumentar uno tono
Aumentar uno semi-tonoAumentar uno semi-tono
Disminuir uno semi-tonoDisminuir uno semi-tono
Disminuir uno tonoDisminuir uno semi-tono
LosAcordes
Buscar
auto avanzar rasgueos aumentar disminuir cambiar color esconder acordes gráficos
losacordes exhibir acordes losacordes youTube video losacordes ocultar tabs losacordes ir hacia arriba losacordes