Atmosfera de Adoração

Início > Atmosfera ... > acordes

Agnus Dei(Solo) Tablatura

Atmosfera de Adoração

Dificultad:ExpertoExperto

thiago__silva

tuner correct add songbook print version text version salvar en e-mail
acordesukuleletablaturabajobateríaarmónicaflautacavacopiano Guitar Pro
acordes

Agnus Dei(Solo)

	  Repete esta parte 3x 
 
E|----------------------------------------------------|| 
B|5--6--8--10--8------5--6--8--10--12--13---12-10-12--|| 
G|----------------------------------------------------|| 
D|----------------------------------------------------|| 
A|----------------------------------------------------|| 
E|----------------------------------------------------|| 
 
E|----------------------------------------------------|| 
B|-10-8-10-8-6-8--------------------------------------|| 
G|----------------------------------------------------|| 
D|----------------------------------------------------|| 
A|----------------------------------------------------|| 
E|----------------------------------------------------|| 
 
A 4ªvez é assim: 
 
E|------------------------10--12--10--12-------12-13--12 
B|5--6--8--10--12--13~-13-------------------12---------- 
G|------------------------------------------------------ 
D|------------------------------------------------------ 
A|------------------------------------------------------ 
E|------------------------------------------------------ 
 
E|--10--8-8--10----10-12-10-8-----10-12-10-8------7--8| 
B|----------------------------10-------------10-------| 
G|----------------------------------------------------| 
D|----------------------------------------------------| 
A|----------------------------------------------------| 
E|----------------------------------------------------| 
 
 
Tá ai. 
Creditos à Pr Marcio Nunes Igreja Batista Pentecostal Mundial, 
que me ajudou com essa tablatura. 
Ministério de Louvor IBPM  
Uma Igreja de Coração Ardente. 
 
 

	  

No existe una video leccione para esta canción

request
LosAcordes
Buscar
auto avanzar rasgueos aumentar disminuir cambiar color esconder acordes gráficos
losacordes exhibir acordes losacordes youTube video losacordes ocultar tabs losacordes ir hacia arriba losacordes