Armor For Sleep

Início > Armor For ... > acordes

Walking At Night Alone Tablatura

Armor For Sleep

Dificultad:Ningún gradoNingún grado

Indestructible

tuner correct add songbook print version text version salvar en e-mail
acordesukuleletablaturabajobateríaarmónicaflautacavacopiano Guitar Pro
acordes

Walking At Night Alone

	    Intro 
E-----------0-----------0-----------------3-5-| 
B---------0-----------0---------------3-5-----| 
G-------0-----------0-------------3-5---------| Repeat 
D-----0-----------0-----------3-5-------------| twice 
A---0-----------0-----------0-----------------| 
E-0-----------0-----------0-------------------| 

  Verse 
E-----------0-----------0-----------------3-5-| 
B---------0-----------0---------------3-5-----| 
G-------0-----------0-------------3-5---------| 
D-----0-----------0-----------3-5-------------| 
A---0-----------0-----------0-----------------| 
E-0-----------0-----------0-------------------| 

  Bridge 
E-----------------------------------------| 
B-----------------------------------------| 
G-----------------------------------------| 
D-4-4-4-4---------5-5-5-5---------4-4-4-4-| 
A-2-2-2-2---------3-3-3-3---------2-2-2-2-| 
E---------3-3-3-3---------3-3-3-3---------| 

  Chorus 
E-------------------------------| 
B-------------------------------| 
G-------------------------------| 
D-3-3-3-3-3-----------4-4-4-4-4-| 
A-3-3-3-3-3-2-2-2-2-2-4-4-4-4-4-| 
E-1-1-1-1-1-0-0-0-0-0-2-2-2-2-2-| 
	  

No existe una video leccione para esta canción

request
LosAcordes
Buscar
auto avanzar rasgueos aumentar disminuir cambiar color esconder acordes gráficos
losacordes exhibir acordes losacordes youTube video losacordes ocultar tabs losacordes ir hacia arriba losacordes