Arch Enemy

Início > Arch Enemy > acordes

Thorns In My Flesh Tablatura

Arch Enemy

Dificultad:IntermedioIntermedio

adalgomes

tuner correct add songbook print version text version salvar en e-mail
acordesukuleletablaturabajobateríaarmónicaflautacavacopiano Guitar Pro
acordes

Thorns In My Flesh

	  
Tuning: C F B E G C

Guitar 1 - Mike  
Guitar 2 - Chris 

 Intro: Guitar 1 
|-------------------------------------------------------------| 
|-------------------------------------------------------------| 
|-----------------------7-6-5----------------------7--6--55---| 
|-----------------------7-6-5----------------------7--6--55---| 
|------5/7-----8\7------5-4-3------5/7-----8\7-----5--4--33---| 
|---0--3/5--00-6\5---00---------0--3/5--00-6\5--00------------| 
| 
| Guitar 2 
|-------------------------------------------------------------| 
|-------------------------------------------------------------| 
|-------------------------------------------------------------| 
|-------------------------------------------------------------| 
|-------------------------------------------------------------| 
|-------------------------------------------------------------| 

 Verse: Both guitars 
|-------------------------------------------------------------| 
|-------------------------------------------------------------| 
|-----------------------7-6-5----------------------7--6--55---| 
|-----------------------7-6-5----------------------7--6--55---| 
|------5/7-----8\7------5-4-3------5/7-----8\7-----5--4--33---| 
|---0--3/5--00-6\5---00---------0--3/5--00-6\5--00------------| 

 Pre Chorus: Both guitars 
|-------------------------------------------------------------------| 
|-------------------------------------------------------------------| 
|-----------------------------------------------------------7-6-5---| 
|-----------------------------------------------------------7-6-5---| 
|------5/7----8---7--5/7----8-7-5------5/7----8---7--5/7----5-4-3---| 
|---0--3/5--0-6-0-5--3/5--0-6-5-3---0--3/5--0-6-0-5--3/5--0---------| 


 Chorus: Guitar 1 
|------------------------------------------------------------| 
|---/5---7-8-10-8-5-5h7----7-8-3-3h5------5-5-7-5-5--4p3-4---| 
|------------------------------------------------------------| 
|------------------------------------------------------------| 
|------------------------------------------------------------| 
|------------------------------------------------------------| 
| 
| Guitar 2 
|------------------------------------------------------------| 
|------------------------------------------------------------| 
|---9---------------7---------------5-------------4----------| 
|---9-------9-------7-------7-------5-------5-----4----------| 
|---7-------9-------5-------7-------3-------5-----2----------| 
|-----------7---------------5---------------3----------------| 

 Solo: 
|-------------------------------------------------------------| 
|-------------------------------------------------------------| 
|-----------------------7-6-5----------------------7--6--55---| 
|-----------------------7-6-5----------------------7--6--55---| 
|------5/7-----8\7------5-4-3------5/7-----8\7-----5--4--33---| 
|---0--3/5--00-6\5---00---------0--3/5--00-6\5--00------------| 
| 
| Guitar 2 
|-------------------------------------------------------------| 
|-------------------------------------------------------------| 
|-------------------------------------------------------------| 
|-------------------------------------------------------------| 
|-------------------------------------------------------------| 
|-------------------------------------------------------------| 

 Verse: Both guitars 
|-------------------------------------------------------------| 
|-------------------------------------------------------------| 
|-----------------------7-6-5----------------------7--6--55---| 
|-----------------------7-6-5----------------------7--6--55---| 
|------5/7-----8\7------5-4-3------5/7-----8\7-----5--4--33---| 
|---0--3/5--00-6\5---00---------0--3/5--00-6\5--00------------| 

 Pre Chorus: Both guitars 
|-------------------------------------------------------------------| 
|-------------------------------------------------------------------| 
|-----------------------------------------------------------7-6-5---| 
|-----------------------------------------------------------7-6-5---| 
|------5/7----8---7--5/7----8-7-5------5/7----8---7--5/7----5-4-3---| 
|---0--3/5--0-6-0-5--3/5--0-6-5-3---0--3/5--0-6-0-5--3/5--0---------| 


 Chorus: Guitar 1 
|------------------------------------------------------------| 
|---/5---7-8-10-8-5-5h7----7-8-3-3h5------5-5-7-5-5--4p3-4---| 
|------------------------------------------------------------| 
|------------------------------------------------------------| 
|------------------------------------------------------------| 
|------------------------------------------------------------| 
| 
| Guitar 2 
|------------------------------------------------------------| 
|------------------------------------------------------------| 
|---9---------------7---------------5-------------4----------| 
|---9-------9-------7-------7-------5-------5-----4----------| 
|---7-------9-------5-------7-------3-------5-----2----------| 
|-----------7---------------5---------------3----------------| 
	  

No existe una video leccione para esta canción

request
LosAcordes
Buscar
auto avanzar rasgueos aumentar disminuir cambiar color esconder acordes gráficos
losacordes exhibir acordes losacordes youTube video losacordes ocultar tabs losacordes ir hacia arriba losacordes