Anjos de Resgate

Início > Anjos de R... > acordes

Um Passo Para Jesus - 2 Tablatura

Anjos de Resgate

Dificultad:PrincipiantePrincipiante

K.I.N.H.O

tuner correct add songbook print version text version salvar en e-mail
acordesukuleletablaturabajobateríaarmónicaflautacavacopiano Guitar Pro
acordes

Um Passo Para Jesus - 2

(Adelso Freire e Adison Freire)

	  (com distorção) 
 
Tom: E			Introdução: (E A9 B4 B) 2X 
 
 
    E		A9	   B4    B        Harmônico 
E|---------|--------|--------------|----------------- 
B|---------|--------|-5-5---5/4----|----------------- 
G|-1-1-x---|-3-3----|-4-4---4------|----9b---9-7-9~-- 
D|-2-2-x---|-2-2-x--|-4-4---4------|-----------------	 
A|-2-2-x---|-0-0-x--|-2-2---2------|----------------- 
E|-0-0-----|--------|--------------|----------------- 
 
 
             E                B 
Se você não sabe aonde a vida mora 
          E/G#              A9        B4  B  
Preste atenção, eu vou te ensinar agora. 
             F#m         B 
Basta dar um passo pra Jesus 
         E            A9 
E você verá o quanto é bom sentir 
     F#m       E/G#           B4      B 
Essa paz, esse amor que tanto me compraz! 
 
          E                    B 
Venha hoje mesmo seguir a Jesus Cristo 
        E/G#           A9             B4  B  
Ele te oferece a vida eterna e o paraíso. 
             F#m              B 
O tempo não espera e vai embora 
             E            A9 
Venha para Cristo, venha agora. 
       F#m       E/G#         B4         B 
Dê um passo para Ele, seja um vencedor! 
 
              E            A9             B 
2º|	Se você não sabe o que é sentir esse Jesus, 
p |         E/G#        A           B 
a |	Basta dar um passo e abrir seu coração. 
r |  	 E                    A9        B      
t |	Ele é a força que te faz um vencedor,  
e |	C#m        F#m       E/G#    A9   B 
	Ele é a salvação 
 
A|----------------------------------- 
E|----7-5-7-9-7~--------------------- 
 
 
Solo: Para tirar este solo, mandar na velocidade. 
E|-11b---9~-------------------------| 
B|----------------------------------| 
G|----------------------------------| 
D|----------------------------------| 
A|----------------------------------| 
E|----------------------------------| 
 
(Aqui sem palhetar, somente ligados), ou pull-of e hammer-on 
E|---------------------------------------------------| 
B|-9-10-12-10-9--------------------------------------| 
G|---------------11-9-8-9-11-8-9---------------------| 
D|-------------------------------11-9-7--------------| 
A|--------------------------------------11-9-7-9-11--| 
E|---------------------------------------------------| 
 
Até aqui, Até aqui,       pequena pausa 
E|-----------------------|--------------------------| 
B|-----------------------|-9-10-12-10~-----9--------| 
G|--------8-9-11---------|-------------------11--9~-| 
D|-7-9-11----------------|--------------------------| 
A|-----------------------|--------------------------| 
E|-----------------------|--------------------------| 
 
E|---------14b--14?12--14~----------| 
B|-/12--14--------------------------| 
G|----------------------------------| 
D|----------------------------------| 
A|----------------------------------| 
E|----------------------------------| 
 
          E                    B 
Venha hoje mesmo seguir a Jesus Cristo 
        E/G#           A9             B4  B  
Ele te oferece à vida eterna e o paraíso. 
             F#m              B 
O tempo não espera e vai embora 
             E            A9 
Venha para Cristo, venha agora. 
       F#m       E/G#         B4         B 
Dê um passo para Ele, seja um vencedor! 
 
              E            A9             B 
2º|	Se você não sabe o que é sentir esse Jesus,	E|-------11-12-14----- 
p |         E/G#        A           B			B|-12-14----------12~- 
a |	Basta dar um passo e abrir seu coração. 
r |  	 E                    A9        B      
t |	Ele é a força que te faz um vencedor,  
e |	C#m        F#m       E/G#    A9   B 
	Ele é a salvação 
 
A|----------------------------------- 
E|----7-5-7-9-7~--------------------- 
 
 
Final: Introdução: (E A9 B4 B) 2X    
 
 

	  

No existe una video leccione para esta canción

request
Aumentar uno tonoAumentar uno tono
Aumentar uno semi-tonoAumentar uno semi-tono
Disminuir uno semi-tonoDisminuir uno semi-tono
Disminuir uno tonoDisminuir uno semi-tono
LosAcordes
Buscar
auto avanzar rasgueos aumentar disminuir cambiar color esconder acordes gráficos
losacordes exhibir acordes losacordes youTube video losacordes ocultar tabs losacordes ir hacia arriba losacordes