Anjos de Resgate

Início > Anjos de R... > acordes

P ão dos anjos Tablatura

Anjos de Resgate

Dificultad:PrincipiantePrincipiante

angelluz

tuner correct add songbook print version text version salvar en e-mail
acordesukuleletablaturabajobateríaarmónicaflautacavacopiano Guitar Pro
acordes

P ão dos anjos

	   
Tom: G 
Solo intro: 
e|------------------------------------------------------------------------------------- 
b|------------------------------------------------------------------------------------- 
g|-------12--14b-(15)14b(15)~~-14brp12-14-14brp12-14--12-14-12-------12-14-14brp12-15b- 
d|-12-14--------------------------------------------14----------12h14------------------ 
a|------------------------------------------------------------------------------------- 
e|------------------------------------------------------------------------------------- 
 
e|------------------------------------15-17-17b-17b-17brp15-17- 
b|--------15-17-17b-17rp15-15--15-17--------------------------- 
g|-15-17------------------------------------------------------- 
d|------------------------------------------------------------- 
a|------------------------------------------------------------- 
e|------------------------------------------------------------- 
 
                  --15-17-15--14h15p14------------------------------| 
                  17------------------17-15-15/17-19-19h20p19-17~~\-| 
                  --------------------------------------------------| 
                  --------------------------------------------------| 
                  --------------------------------------------------| 
                  --------------------------------------------------| 
 
 
 
 
Solo do meio da musica: 
 
e|--------------------------------------------------------------12-14-15b-15-17b-17~- 
b|------------------------12--13--15-------------------12-13-15---------------------- 
g|----------------------12--12--12---------------12-14------------------------------- 
d|-5~-4-5-7-5-7/9-7------------------14-14-12-14------------------------------------- 
a|------------------9/--------------------------------------------------------------- 
e|----------------------------------------------------------------------------------- 
 
 
 
 

	  

No existe una video leccione para esta canción

request
Aumentar uno tonoAumentar uno tono
Aumentar uno semi-tonoAumentar uno semi-tono
Disminuir uno semi-tonoDisminuir uno semi-tono
Disminuir uno tonoDisminuir uno semi-tono
LosAcordes
Buscar
auto avanzar rasgueos aumentar disminuir cambiar color esconder acordes gráficos
losacordes exhibir acordes losacordes youTube video losacordes ocultar tabs losacordes ir hacia arriba losacordes