Anjos de Resgate

Início > Anjos de R... > acordes

O Céu Inteiro Está Orando Por Ti Tablatura

Anjos de Resgate

Dificultad:ExpertoExperto

K.I.N.H.O

tuner correct add songbook print version text version salvar en e-mail
acordesukuleletablaturabajobateríaarmónicaflautacavacopiano Guitar Pro
acordes

O Céu Inteiro Está Orando Por Ti

	  ANJOS DE RESGATE - O CÉU INTEIRO ESTÁ ORANDO POR TI 
 
 
 
SOLO NO MEIO DA MUSICA 
E|--10--------------------------- 
B|------8--7---------------------	4X 
G|------------------------------- 
D|------------------------------- 
A|------------------------------- 
E|------------------------------- 
 
E|--10-----10--14--|--15--14-12--10---------5-----7---------5—3--3—-----2--3--| 
B|------8--------------------------------8------------------------------------| 
G|----------------------------------------------------------------------------| 
D|----------------------------------------------------------------------------| 
A|----------------------------------------------------------------------------| 
E|----------------------------------------------------------------------------| 
 
E|----2-3--5--7---10-14--17-----------| 
B|-3-------------------------------20-|	 
G|------------------------------------| 
D|------------------------------------| 
A|------------------------------------| 
E|------------------------------------| 
 

	  

No existe una video leccione para esta canción

request
LosAcordes
Buscar
auto avanzar rasgueos aumentar disminuir cambiar color esconder acordes gráficos
losacordes exhibir acordes losacordes youTube video losacordes ocultar tabs losacordes ir hacia arriba losacordes