Anjos de Resgate

Início > Anjos de R... > acordes

Cura me Tablatura

Anjos de Resgate

Dificultad:AdelantadoAdelantado

samuel bomtempo

tuner correct add songbook print version text version salvar en e-mail
acordesukuleletablaturabajobateríaarmónicaflautacavacopiano Guitar Pro
acordes

Cura me

	  CURA ME SENHOR (ANJOS DE RESGATE )  
SOLO DO MEIO DA MÚSICA 
 
E--14~<------------------------------------- 
B------------------------------------------- 
G------------------------------------------- 
D------------------7--5-4>5~---------------- 
A----------------5-------------------------- 
E------------5-7---------------------------- 
 
E------------------------------------------- 
B-->>8-8-7>5-------------------------------- 
G------------7-5>7----4-5-7----------------- 
D------------------5-7-----5>7-5------------ 
A------------------------------------------- 
E------------------------------------------- 
 
E--------------------5>7-5------------------ 
B-------------------------8~---------------- 
G-----------4--5--7------------------------- 
D-----5--7---------------------------------- 
A------------------------------------------- 
E------------------------------------------- 
 
E----12/12-10>8-10>8>7-8>7>5-7-5------------ 
B--------------------------------8-7-5------ 
G--------------------------------------7---- 
D------------------------------------------- 
A------------------------------------------- 
E------------------------------------------- 

	  

No existe una video leccione para esta canción

request
LosAcordes
Buscar
auto avanzar rasgueos aumentar disminuir cambiar color esconder acordes gráficos
losacordes exhibir acordes losacordes youTube video losacordes ocultar tabs losacordes ir hacia arriba losacordes