Angels and Airwaves

Início > Angels and... > acordes

Saturday Love Tablatura

Angels and Airwaves

Dificultad:IntermedioIntermedio

ubirbomfim

tuner correct add songbook print version text version salvar en e-mail
acordesukuleletablaturabajobateríaarmónicaflautacavacopiano Guitar Pro
acordes

Saturday Love

	  
Intro Part 1 
e|------------------------| 
B|------------------------| 
G|---11-------6----7--6---| 
D|---9--------9----9--9---| x4 
A|------------------------| 
E|------------------------| 

Intro Part 2 

e|--------------------------------------| 
B|--------------------------------------| 
G|---11---------13---6----7--6----7--6--| 
D|---9----------9----9----9--9----9--9--| x2 
A|--------------------------------------| 
E|--------------------------------------| 

 

Verse
 
e|----------------------------| 
B|----------------------------| 
G|--4-------------------------| 
D|--4------6---------4--------| x3 
A|--2------6---------4--------| 
E|---------4---------2--------| 



Chorus 
Guitar 1 

e|-----------------------| 
B|-----------------------| 
G|-------9---------------| 
D|--6----9----9----8-----| x2 
A|--6----7----9----9-----| 
E|--4---------7----6-----| 

Guitar 2 

e|------------------------| 
B|------------------------| 
G|---11---9----11---9-----| 
D|---9----9----9----9-----| x4 
A|------------------------| 
E|------------------------| 



Post Chorus Riff 

e|----------------------------------------| 
B|----------------------------------------| 
G|-------8--------8-----------------------| 
D|-----------11------8---9---8---9--------| x2 
A|-------------------------------------9--| 
E|----------------------------------------| 


Play Verse 

Play Chorus  


Bridge 
Played with some kind of tremolo effect 

e|-----------------------------------------------| 
B|-----------------------------------------------| 
G|-----------------------------------------------| 
D|--9--8--9--11--9--11--13--11--13--14--13--11---| x4 
A|-----------------------------------------------| 
E|-----------------------------------------------| 


Play Chorus 

End on: 

e|-------| 
B|-------| 
G|-------| 
D|--9----| 
A|--9----| 
E|--7----| 
 
	  

No existe una video leccione para esta canción

request
LosAcordes
Buscar
auto avanzar rasgueos aumentar disminuir cambiar color esconder acordes gráficos
losacordes exhibir acordes losacordes youTube video losacordes ocultar tabs losacordes ir hacia arriba losacordes