Angels and Airwaves

Início > Angels and... > acordes

Behold A Pale Horse Tablatura

Angels and Airwaves

Dificultad:Ningún gradoNingún grado

brunblazkowski

tuner correct add songbook print version text version salvar en e-mail
acordesukuleletablaturabajobateríaarmónicaflautacavacopiano Guitar Pro
acordes

Behold A Pale Horse

	  

Intro 

(0:00-0:24) 
e|---------------------9-----9--10-| 
B|--10---9---10---9------10--------| 
G|-----9---9----9---9--------------| X2 
D|---------------------------------| 
A|---------------------------------| 
E|---------------------------------| 

Intro pt 2 

(0:25-0:34) 
e|--9-----9-----9----7-----7-----7-----| 
B|----9-9---9-9--9----9-9---9-9---9----| 
G|-------------------------------------| x3 
D|-------------------------------------| 
A|-------------------------------------| 
E|-------------------------------------| 

Verse 1(Palm-Mute) 

(0:35-1:11) 
e|-------------------| 
B|-------------------| 
G|---9--9--9--6------| X6 
D|--11--9--7--6------| 
A|-------------------| 
E|-------------------| 

Riff 

(1:12-1:23) 
e|--------------------| 
B|---10---10---10---12| 
G|-9----9----9----9---| x2 
D|--------------------| 
A|--------------------| 
E|--------------------| 

Verse 1 (cont.) 

(1:24-1:42) 
e|-------------------| 
B|-------------------| 
G|---9--9--9--6------| X3 
D|--11--9--7--6------| 
A|-------------------| 
E|-------------------| 

Chorus 1 

(1:43-2:01) 
e|-------------------| 
B|-------------------| 
G|-------------------| x3 
D|--7-------9--------| 
A|--7-x12---9-x12----| 
E|--5-------7--------| 

Riff 

(2:02-2:13) 
e|--------------------| 
B|--10--10--10--12----| 
G|-9---9---9---9------| x2 
D|--------------------| 
A|--------------------| 
E|--------------------| 

Verse 2 (Palm-Mute) 

(2:14-2:32) 
e|-------------------| 
B|-------------------| 
G|---9--9--9--6------| X3 
D|--11--9--7--6------| 
A|-------------------| 
E|-------------------| 

Chorus 2
 
(2:33-2:50) 
e|-------------------| 
B|-------------------| 
G|-------------------| x3 
D|--7-------9--------| 
A|--7-x12---9-x12----| 
E|--5-------7--------| 

Bridge 

(2:51-3:00) 
e|---------------------9-----9--10-| 
B|--10---9---10---9------10--------| x1 
G|-----9---9----9---9--------------| 
D|---------------------------------| 
A|---------------------------------| 
E|---------------------------------| 

(3:01-3:10) 
e|--9-----9------9-----7------7-----7--| 
B|----9-9---9-9---9------9-9----9-9--9-| x3 
G|-------------------------------------| 
D|-------------------------------------| 
A|-------------------------------------| 
E|-------------------------------------| 

Riff
 
(3:11-3:22) 
e|--------------------| 
B|---10---10---10---12| 
G|-9----9----9----9---| x2 
D|--------------------| 
A|--------------------| 
E|--------------------| 

Last-Chorus 

(3:21-3:59) 
e|-------------------| 
B|-------------------| 
G|-------------------| x6 
D|--7-------9--------| 
A|--7-x12---9-x12----| 
E|--5-------7--------| 
	  

No existe una video leccione para esta canción

request
LosAcordes
Buscar
auto avanzar rasgueos aumentar disminuir cambiar color esconder acordes gráficos
losacordes exhibir acordes losacordes youTube video losacordes ocultar tabs losacordes ir hacia arriba losacordes