Andy James

Início > Andy James > acordes

Angel Of Darkness Tablatura

Andy James

Dificultad:ExpertoExperto

edsooliveira

tuner correct add songbook print version text version salvar en e-mail
acordesukuleletablaturabajobateríaarmónicaflautacavacopiano Guitar Pro
acordes

Angel Of Darkness

	   
-----------------10h13p10-----------------10h13---17p13-------------------10h13p10----13--------------------- 
--------------------------------------------------------15--------------------------------------------------- 
--14p10----10h13-----------14p10----10h13------------------14s10----10h14----------14----14p10s8-12p8----8h11 
--------12-----------------------12------------------------------12-----------------------------------10----- 
------------------------------------------------------------------------------------------------------------- 
------------------------------------------------------------------------------------------------------------- 
 


 
--8h11p8--15p11----------11h15--18p15-----------15h18--22p18----------18h22--- 
----------------13----13-------------------------------------20----20--------- 
-------------------12------------------19-15-19-----------------19------------ x3 
------------------------------------------------------------------------------ 
------------------------------------------------------------------------------ 
------------------------------------------------------------------------------ 
 

Slightly different ending !!! Tab by andrey_t9 

 
-----------------10h13p10-----------------10h13---17p13-------------------10h13p10----13--------------------- 
--------------------------------------------------------15--------------------------------------------------- 
--14p10----10h13-----------14p10----10h13------------------14s10----10h14----------14----14p10s8-12p8----8h11 
--------12-----------------------12------------------------------12-----------------------------------10----- 
------------------------------------------------------------------------------------------------------------- 
------------------------------------------------------------------------------------------------------------- 
 


 
--8h11p8--15p11----------11h15--18p15-----------15h18--22p18----------18h22-22b23-22v- 
----------------13----13-------------------------------------20----20----------------- 
-------------------12------------------19-15-19-----------------19-------------------- 
-------------------------------------------------------------------------------------- 
-------------------------------------------------------------------------------------- 
-------------------------------------------------------------------------------------- 



***LITTLE RHYTHM SECTION*** 


 
-------------------------------------- 
-------------------------------------- 
-------------------------------------- 
--7-7-7---------7--------------------- 
--5-5-5---------5--------------------- 
--5-5-5------\--5----------5-5-5-5-5-- 
 


***1SI VERSE*** 

Tab by andrey_t9 



 
---------------------------------------------------------------------------------------------------------------- 
---------------------------------------------------------------------------------------------------------------- 
----------9-10-------------7--10s12-10-9-9b10r9---------------9-10---12s14-14-14-14s15-12-----10-12-12-12s14--10 
----------------7s8v---7-8-----------------------12---------------------------------------s12------------------- 
-------12--------------------------------------------------12--------------------------------------------------- 
--s10-------------------------------------------------s10------------------------------------------------------- 
 

 
-22p17--------------------------------------17h22----20p15-------------------------------------15h20 
--------22p17s15----------------------17h22----------------20p15s13----------------------15h20------ 
-----------------19p14----------14h19-------------------------------17p12----------12h17------------ 
-----------------------19p14-15-------------------------------------------17p12-17------------------ 
---------------------------------------------------------------------------------------------------- 
---------------------------------------------------------------------------------------------------- 
 


Tab by andrey_t9 


 
--18p13--------------------------------------13h18---17p12----------12h17---18p13----------13h18 
---------18p13s11----------------------13h18---------------17p12-17---------------18p13-18------ 
------------------15p10----------10h15---------------------------------------------------------- 
------------------------15p10 15---------------------------------------------------------------- 
------------------------------------------------------------------------------------------------ 
------------------------------------------------------------------------------------------------ 
 

 
-h10h15t22p15p10----------------------------------------------------------------------------------------------------- 
-----------------h15p10h15t22p15p10---------------------------------------------------------------------------------- 
-------------------------------------h14p10h15t21p14p10-------------------------------------------------------------- 
--------------------------------------------------------h15p10h15t22p15p10------------------------------------------- 
---------------------------------------------------------------------------h15p10h15t22p15p10------------------------ 
---------------------------------------------------------------------------------------------h15p10h15t22p15p10p15p22 
 

 
---------------------------------------- 
---------------------------------------- 
---------------------------------------- 
---------------------h15p10h15t22p15p10- 
-h15p10h15t22p15p10--------------------- 
---------------------------------------- 
 

 
-------------------------t15----------------------------------------------------h10h13t17-h13h17t22v 
--------------------h13------h13----------h13------------------------------------------------------- 
---------------h10---------------h10--t14-----h10--------------------------------------------------- 
-----------t14-------------------------------------t14-----------------h12h15t19-------------------- 
------h12-----------------------------------------------h12----------------------------------------- 
-h10---------------------------------------------------------h10h13t17------------------------------ 
 


***Chorus*** 
Tab by andrey_t9 


 
----------------------------------------------------------------------------------------- 
----8---8s10-----5---5s6-5-5h6p5--------------------------------------------------------- 
--7---7--------7---7-------------7----5s7--9-7s9--10-9s10--14--9h10p9-----------17-----14 
-----------------------------------7----------------------------------12--10s14----17---- 
----------------------------------------------------------------------------------------- 
----------------------------------------------------------------------------------------- 
 


 
------------------------------------17--------------------15-17----- 
----------17-18pr17----17-18-20-20b----20v-----15--18b20--------17b- 
------19------------19---------------------------------------------- 
---19--------------------------------------------------------------- 
-------------------------------------------------------------------- 
-------------------------------------------------------------------- 
 


 
--17p13--------------------------------------13h17---12p8---------------------------8h12 
---------15-13s10----------------------13h15--------------10-8s5---------------8h10----- 
------------------14p10----------10h14---------------------------9p5-------5h9---------- 
------------------------12p10h12-------------------------------------7p5h7-------------- 
---------------------------------------------------------------------------------------- 
---------------------------------------------------------------------------------------- 
 


 
----------------------------------------------------10-------13p10-------17p13----------13h17s22 
-------------------------------------------------------------------------------15----15--------- 
-------------------------------------10h14----12h14----14p10-------14p10----------14------------ 
---------------------10h14-----10h14-------12--------------------------------------------------- 
-------8h12----8h12---------12------------------------------------------------------------------ 
--8h10------10---------------------------------------------------------------------------------- 
 



 
18-22-20-18--17-20-18-17--15-18-17-15--13-17-15-13--12-15-13-12-------12-13----- 
----------------------------------------------------------------15b17-------15v- 
-------------------------------------------------------------------------------- 
-------------------------------------------------------------------------------- 
-------------------------------------------------------------------------------- 
-------------------------------------------------------------------------------- 
 


***LITTLE RHYTHM SECTION 2***Tab by andrey_t9 


 
----------------------------------------- 
----------------------------------------- 
----------------------------------------- 
--------------------7-------------------- 
--------------------5-------------------- 
--5-5-5-5-5-----\---5---------5-5-5-5-5-- 
 



***2ND VERSE*** 



 
----------12-13------22p17-----------17h20p17----------17h18p17--------------------------------------------------- 
----------------11v-------------------------------------------------------17h20p17----------17h18p17-------------- 
-------14------------------19-17-19-----------19-17-19----------19-17-19----------19-17-19------------19b20-17-19v 
---s12------------------------------------------------------------------------------------------------------------ 
------------------------------------------------------------------------------------------------------------------ 
------------------------------------------------------------------------------------------------------------------ 
 


 
---------------------------------------------------------------------------------------- 
---------------------------------------------------------------------------------------- 
-----------------------------------------------------------14-17-19-17-14-19-17-14-17-19 
-----------------------------------------14-17-19-14-17-19------------------------------ 
----------12-15-17-15-12--17-15-12-15-17------------------------------------------------ 
-12-15-17------------------------------------------------------------------------------- 
 



 
----------------------17-20-22-22-20-17--------22-20-17------------------------------------------ 
--17-20-22--17-20-22---------------------20-17----------20-17------22-20-17--------22-20-17------ 
-----------------------------------------------------------------------------20-17----------20-17 
------------------------------------------------------------------------------------------------- 
------------------------------------------------------------------------------------------------- 
------------------------------------------------------------------------------------------------- 
 

 
--------------------------------------------- 
--------------------------------------------- 
---21-19-17-----------21-19-17--------19b21-- 
-------------19-17-------------19-17--------- 
--------------------------------------------- 
--------------------------------------------- 
 

Tab by andrey_t9 

 
------------------h13h17t18---------------------------------- 
------------------------------------------------------------- 
---------h14h15t19---------t19p15p14---------------h14h15t19- 
------------------------------------------------------------- 
-13h17t20---------------------------t20p17p13h17t20---------- 
------------------------------------------------------------- 
 

 
---------------------h12h15t17------------------------------- 
------------------------------------------------------------- 
---------h12h14t17---------t17p14p12---------------h12h14t17- 
------------------------------------------------------------- 
-12h15t19---------------------------t19p15p12h15t19---------- 
------------------------------------------------------------- 
 


 
---------------------h10h13t17------------------------------- 
------------------------------------------------------------- 
---------h10h12t17---------t17p12p10---------------h10h12t17- 
------------------------------------------------------------- 
-10h13t17---------------------------t17p13p10h13t17---------- 
------------------------------------------------------------- 
 


 
---------------------h8h12t13---------------------------------- 
--------------------------------------------------------------- 
---------h9h10t14-------------t14p10p9---------------h9h10t14-- 
--------------------------------------------------------------- 
-8h12t15--------------------------------t15p12p8h12t15--------- 
--------------------------------------------------------------- 
 

 
---------------------t15----------------------------------------- 
-----------------h13----h13---------h10-------------------------- 
-------------h10------------h10-t14-----h13---------------------- 
---------t14--------------------------------t14-------------t14-- 
-----h12----------------------------------------h12-----h12------ 
-h10------------------------------------------------h10---------- 
 

Tab by andrey_t9 

 
---------------------t12----------------------------------------- 
-----------------h10----h10-------h10---------------------------- 
-------------h9------------h9-t12-----h9------------------------- 
---------t12--------------------------------t12-------------t12-- 
-----h10----------------------------------------h10-----h10------ 
-h8------------------------------------------------h8------------ 
 

 
---------------------t10----------------------------------------- 
-----------------h8-----h8-------h8------------------------------ 
-------------h7------------h7-t10-----h7------------------------- 
---------t10--------------------------------t10-------------t10-- 
-----h8----------------------------------------h8-----h8--------- 
-h6------------------------------------------------h6------------ 
 


 
---------------------t12----------------------------------------- 
-----------------h10----h10-------h10---------------------------- 
-------------h9------------h9-t12-----h9------------------------- 
---------t12--------------------------------t12-------------t12-- 
-----h10----------------------------------------h10-----h10------ 
-h8------------------------------------------------h8------------ 
 

 
------------------------------------------------------------------ 
----------------------------h10-h13-t17--------------------------- 
------------------------------------------------------------------ 
---------------h10-h12-t17--------------t17-h12-h10--------------- 
------------------------------------------------------------------ 
---h10-h13-t17---------------------------------------t17-h13-h10v- 
 



***Chorus*** 
Tab by andrey_t9 


 
------------------------------------------------------------------------------------------ 
----8---8s10-----5---5s6-5-5h6p5---------------------------------------------------------- 
--7---7--------7---7-------------7----5s7--9-7s9--10-9s10--14--9h10p9-----------17-----14- 
-----------------------------------7----------------------------------12--10s14----17----- 
------------------------------------------------------------------------------------------ 
------------------------------------------------------------------------------------------ 
 


 
------------------------------------17--------------------15-17----- 
----------17-18pr17----17-18-20-20b----20v-----15--18b20--------17b- 
------19------------19---------------------------------------------- 
---19--------------------------------------------------------------- 
-------------------------------------------------------------------- 
-------------------------------------------------------------------- 
 


 
--17p13--------------------------------------13h17---12p8---------------------------8h12- 
---------15-13s10----------------------13h15--------------10-8s5---------------8h10------ 
------------------14p10----------10h14---------------------------9p5-------5h9----------- 
------------------------12p10h12-------------------------------------7p5h7--------------- 
----------------------------------------------------------------------------------------- 
----------------------------------------------------------------------------------------- 
 


 
----------------------------------------------------10-------13p10-------17p13----------13h17s22 
-------------------------------------------------------------------------------15----15--------- 
-------------------------------------10h14----12h14----14p10-------14p10----------14------------ 
---------------------10h14-----10h14-------12--------------------------------------------------- 
-------8h12----8h12---------12------------------------------------------------------------------ 
--8h10------10---------------------------------------------------------------------------------- 
 



 
18-22-20-18--17-20-18-17--15-18-17-15--13-17-15-13--12-15-13-12-------12-13----- 
----------------------------------------------------------------15b17-------15v- 
-------------------------------------------------------------------------------- 
-------------------------------------------------------------------------------- 
-------------------------------------------------------------------------------- 
-------------------------------------------------------------------------------- 
 

Tab by andrey_t9 

***LITLLE RHYTHM SECTION3*** 


-------  ------------------ --------------------------------------- 
-10-8--  ---11-10-8-10----- --------------------------------------- 
 
-------x6------------------ --------------------------------------- 
 
-------  ------------------ -7---7---7-----------------7----7----7- 
-------  ------------------ -5---5---5-----------------5----5----5- 
-------  ------------------ -5---5---5---5-5-5-5-5-5-5-5----5----5- 



***Arpeggios Section*** 



 
------------------------------------------------------------------------------------- 
------------------8------11p8----8--------10p8-----8---------------8-------11p8------ 
------------------------------------------------------------------------------------- 
-----8h12----8h12---12p8------12-----12p8-------12---12p8-----8h12---12p8-------12p8- 
--10------10-----------------------------------------------12------------------------ 
------------------------------------------------------------------------------------- 
 

 
---------------------------------------------------------------------------------- 
-----------------6-------10p6----6--------8p6-----6--------------6------10p6------ 
---------------------------------------------------------------------------------- 
----7h10---7h10----10p7-------10----10p7-------10---10p7---7h10----10p7------10p7- 
--8------8-----------------------------------------------8------------------------ 
---------------------------------------------------------------------------------- 
 

 
--------------------10-------13p10----13-------12p10----10----------------10-------13p10------- 
----------------------------------------------------------------------------------------------- 
-----10h14----10h14----14p10-------14----14p10-------14----14p10----10h14----14p10-------14p10- 
--12-------12----------------------------------------------------12---------------------------- 
----------------------------------------------------------------------------------------------- 
----------------------------------------------------------------------------------------------- 
 

 
---15p11----------------11-------15p11----11---------17p13----------13h17---20p17----------17h20 
----------------------------------------------------------------------------------18-17-18------ 
---------15p12----12p15----15p12--------15---15p12---------17-14-17----------------------------- 
---------------13------------------------------------------------------------------------------- 
------------------------------------------------------------------------------------------------ 
------------------------------------------------------------------------------------------------ 
 

 
----22p18-------------------15-------18p15----15-------------------------------------------------- 
----------20-------------------------------------------------------------------------------------- 
-------------19s15----15h19----19p15-------19---19p15-15h19p15s12-15p12----------------15h19p15--- 
-------------------17---------------------------------------------------------------------------17 
-------------------------------------------------------------------------17p13---13h17------------ 
-------------------------------------------------------------------------------15----------------- 
 


 
--17h20p17-----------------13-----17p13----13------------------------------------------------- 
----------18---------------------------------------------------------------------------------- 
-------------17s14---14h17---17p14------17----17p14-14h1714s10-14p10---------------14h17p14--- 
-------------------15-----------------------------------------------------------------------15 
---------------------------------------------------------------------15p12--12h15------------- 
--------------------------------------------------------------------------13------------------ 
 


 
------------------------------------------------------------10------13---17p13---------13h17 
-------------------------------------------------------------------------------15----15----- 
-------------------------------10------12p10----------10h14---14p10---------------14-------- 
-------10-------12p10------------------------12-10h12--------------------------------------- 
----------------------12-10h12----12p10----------------------------------------------------- 
-10h13----13p10----------------------------------------------------------------------------- 
 

Tab by andrey_t9 

 
----------------------------------------------------------------15h18s20p17---------17h20- 
----------------------------------------------------------15h16-------------18p17h18------ 
-----------------------------------12h15p12---------12h15--------------------------------- 
------------------------------12h13--------13p12h13--------------------------------------- 
-------10h13p10---------10h13------------------------------------------------------------- 
-10h11----------11p10h11------------------------------------------------------------------ 
 


          X4                             X4                         X4                         X4 

 
-20p18-------22p18------- --18p17-------20p17------ ----15p13-------17p13------ -17p15-------18p15------ 
-------20p18-------20p18- -------18p17-------18p17- ---------15p13-------15p13- -------16p15-------16p15 
------------------------- ------------------------- --------------------------- ------------------------ 
------------------------- ------------------------- --------------------------- ------------------------ 
------------------------- ------------------------- --------------------------- ------------------------ 
------------------------- ------------------------- ---------------------------- ----------------------- 
 

 
-s22--------------------- 
------------------------- 
------------------------- 
------------------------- 
------------------------- 
------------------------- 
 


 
---------------------------------------------------------------------------------------------------------- 
---------------------------------------------------------------------------------------------------------- 
---------------------------------------------------------------------------------------------------------- 
-----------------------------------------------------------13-15-17-15-13----------------13-15-17-13-15-17 
-----------13-15-17-15-13----------------13-15-17-13-15-17----------------17-15-13-15-17------------------ 
--13-15-17----------------17-15-13-15-17------------------------------------------------------------------ 
 


 
-------------------------------------------------------------------------------------------------- 
--------------------------------------------------15-16-18-16-15----------------15-16-18-15-16-18- 
--14-15-17-15-14----------------14-15-17-14-15-17----------------17-15-14-15-17------------------- 
-----------------17-15-13-15-17------------------------------------------------------------------- 
-------------------------------------------------------------------------------------------------- 
-------------------------------------------------------------------------------------------------- 
 

Tab by andrey_t9 

 
---15-17-18-17-15-------------------17-19-20----------18-20-22--22p18----18---------- 
------------------18-16-15-16-18-20----------18-20-22-----------------22----22p18s15- 
------------------------------------------------------------------------------------- 
------------------------------------------------------------------------------------- 
------------------------------------------------------------------------------------- 
------------------------------------------------------------------------------------- 
 

 
------------------15-------18p15----15-------17p15----15---------15p11--------------11-------15p11----11------ 
-------------------------------------------------------------------------------------------------------------- 
---19p15----15p19----19p15-------19----19p15-------19----19p15---------15p12---12h15---15p12-------15----15p12 
---------17------------------------------------------------------------------13------------------------------- 
-------------------------------------------------------------------------------------------------------------- 
-------------------------------------------------------------------------------------------------------------- 
 

 
--17p13----------13h17----20p17---------17h20- 
-------------------------------18p17h18------- 
--------17-14-17------------------------------ 
---------------------------------------------- 
---------------------------------------------- 
---------------------------------------------- 
 


Tab by andrey_t9 
***Chorus*** 



 
----------------------------------------------------------------------------------------- 
----8---8s10-----5---5s6-5-5h6p5--------------------------------------------------------- 
--7---7--------7---7-------------7----5s7--9-7s9--10-9s10--14--9h10p9-----------17-----14 
-----------------------------------7----------------------------------12--10s14----17---- 
----------------------------------------------------------------------------------------- 
----------------------------------------------------------------------------------------- 
 


 
------------------------------------17--------------------15-17----- 
----------17-18pr17----17-18-20-20b----20v-----15--18b20--------17b- 
------19------------19---------------------------------------------- 
---19--------------------------------------------------------------- 
-------------------------------------------------------------------- 
-------------------------------------------------------------------- 
 


 
--17p13--------------------------------------13h17---12p8---------------------------8h12 
---------15-13s10----------------------13h15--------------10-8s5---------------8h10----- 
------------------14p10----------10h14---------------------------9p5-------5h9---------- 
------------------------12p10h12-------------------------------------7p5h7-------------- 
---------------------------------------------------------------------------------------- 
---------------------------------------------------------------------------------------- 
 


 
----------------------------------------------------10-------13p10-------17p13----------13h17s22 
-------------------------------------------------------------------------------15----15--------- 
-------------------------------------10h14----12h14----14p10-------14p10----------14------------ 
---------------------10h14-----10h14-------12--------------------------------------------------- 
-------8h12----8h12---------12------------------------------------------------------------------ 
--8h10------10---------------------------------------------------------------------------------- 
 



 
18-22-20-18--17-20-18-17--15-18-17-15--13-17-15-13--12-15-13-12-------12-13 
----------------------------------------------------------------15b17------ 
--------------------------------------------------------------------------- 
--------------------------------------------------------------------------- 
--------------------------------------------------------------------------- 
--------------------------------------------------------------------------- 
 


***Last Section*** Tab by andrey_t9 


 
-----------------10h13p10-----------------10h13---17p13-------------------10h13p10----13--------------------- 
--------------------------------------------------------15--------------------------------------------------- 
--14p10----10h13-----------14p10----10h13------------------14s10----10h14----------14----14p10s8-12p8----8h11 
--------12-----------------------12------------------------------12-----------------------------------10----- 
------------------------------------------------------------------------------------------------------------- 
------------------------------------------------------------------------------------------------------------- 
 


 
--8h11p8--15p11----------11h15--18p15-----------15h18--22p18----------18h22--- 
----------------13----13-------------------------------------20----20--------- 
-------------------12------------------19-15-19-----------------19------------ x3 
------------------------------------------------------------------------------ 
------------------------------------------------------------------------------ 
------------------------------------------------------------------------------ 
 

Slightly different ending !!! 

 
-----------------10h13p10-----------------10h13---17p13-------------------10h13p10----13--------------------- 
--------------------------------------------------------15--------------------------------------------------- 
--14p10----10h13-----------14p10----10h13------------------14s10----10h14----------14----14p10s8-12p8----8h11 
--------12-----------------------12------------------------------12-----------------------------------10----- 
------------------------------------------------------------------------------------------------------------- 
------------------------------------------------------------------------------------------------------------- 
 


 
--8h11p8--15p11----------11h15--18p15-----------15h18--22p18----------18h22-22b23-22v- 
----------------13----13-------------------------------------20----20----------------- 
-------------------12------------------19-15-19-----------------19-------------------- 
-------------------------------------------------------------------------------------- 
-------------------------------------------------------------------------------------- 
-------------------------------------------------------------------------------------- 
	  

No existe una video leccione para esta canción

request
LosAcordes
Buscar
auto avanzar rasgueos aumentar disminuir cambiar color esconder acordes gráficos
losacordes exhibir acordes losacordes youTube video losacordes ocultar tabs losacordes ir hacia arriba losacordes