André Valadão

Início > André Vala... > acordes

Tempo de Milagres Tablatura

André Valadão

Dificultad:AdelantadoAdelantado

brunoocko

tuner correct add songbook print version text version salvar en e-mail
acordesukuleletablaturabajobateríaarmónicaflautacavacopiano Guitar Pro
acordes

Tempo de Milagres

Áño: 2005 - Álbum: Milagres: ao Vivo

	  POSSO CRER QUE EM MINHA VIDA O MILAGRE VAI ACONTECER 
POSSO VER AS PROMESSAS SENDO LIBERADAS SOBRE MIM 
 
e)------------------------------------| 
B)-1-0-1--1-0-1-1--1-1-1-0------------| 
G)--------------------------2-2-0-----| 
D)---------------------------------0-2| 
A)------------------------------------| 
E)------------------------------------| 
 
SENDO LIBERADAS SOBRE MIM 
 
e)-----------------------------| 
B)-----------------1-1---------| 
G)-2-2-2-2-0-0-2---------------| 
D)-----------------------------| 
A)-----------------------------| 
E)-----------------------------| 
 
 

	  

No existe una video leccione para esta canción

request
LosAcordes
Buscar
auto avanzar rasgueos aumentar disminuir cambiar color esconder acordes gráficos
losacordes exhibir acordes losacordes youTube video losacordes ocultar tabs losacordes ir hacia arriba losacordes