Anberlin

Início > Anberlin > acordes

The Feel Good Drag Tablatura

Anberlin

Dificultad:PrincipiantePrincipiante

miooojo

tuner correct add songbook print version text version salvar en e-mail
acordesukuleletablaturabajobateríaarmónicaflautacavacopiano Guitar Pro
acordes

The Feel Good Drag

Áño: 2005 - Álbum: Never Take Friendship Personal

	  Gtr I (D A D G B E) - 'Untitled' 
Gtr II (D A D G B E) - 'Untitled' 
Gtr III (D A D G B E) - 'Untitled' 
 
 
 Intro 
  Q=95 
  N.C. 
 4/4 
  Gtr I                  Gtrs I, II, III 
   < 
   ~~~~~~~~~~~~~~~~~ 
   W            +H.      S E S 
|-{5}--------|--(5)------x-x-x-| 
|-10---------|-(10)------x-x-x-| 
|------------|-----------x-x-x-| 
|------------|-----------x-x-x-| 
|------------|-----------x-x-x-| 
|------------|-----------x-x-x-| 
   W            +H.      Q 
 
 
  F5                                Eb5 
  Gtr I 
  S S S S S S S S S S S S S S S S   S S S S S S S S S S S S S S S S 
|---------4---------------8-------|---------4---------------8--------| 
|-4-6-6-6---6-6-6-4-6-6-6---4-4-4-|-4-6-6-6---6-6-6-4-6-6-6---4-4-4--| 
|---------------------------------|----------------------------------| 
|---------------------------------|----------------------------------| 
|---------------------------------|----------------------------------| 
|---------------------------------|----------------------------------| 
| 
| Gtr II 
| S S S S S S S S S S S S S S S S   S S S S S S S S S S S S S S S S 
|---------------------------------|----------------------------------| 
|---------------------------------|----------------------------------| 
|---------1---------------5-------|---------1---------------5--------| 
|-1-3-3-3---3-3-3-1-3-3-3---1-1-1-|-1-3-3-3---3-3-3-1-3-3-3---1-1-1--| 
|---------------------------------|----------------------------------| 
|---------------------------------|----------------------------------| 
| 
| Gtr III 
| S S S S S S S S S S S S S S S S   S S S S S S S S S S S S S S S S 
|---------------------------------|----------------------------------| 
|---------------------------------|----------------------------------| 
|---------------------------------|----------------------------------| 
|-3-3-3-3-3-3-3-3-3-3-3-3-3-3-3-3-|-1-1-1-1-1-1-1-1-1-1-1-1-1-1-1-1--| 
|-3-3-3-3-3-3-3-3-3-3-3-3-3-3-3-3-|-1-1-1-1-1-1-1-1-1-1-1-1-1-1-1-1--| 
|-3-3-3-3-3-3-3-3-3-3-3-3-3-3-3-3-|-1-1-1-1-1-1-1-1-1-1-1-1-1-1-1-1--| 
 
 
  Db5 
  S S S S S S S S S S S S S S S S 
|---------4---------------8-------| 
|-4-6-6-6---6-6-6-4-6-6-6---4-4-4-| 
|---------------------------------| 
|---------------------------------| 
|---------------------------------| 
|---------------------------------| 
| 
| S S S S S S S S S S S S S S S S 
|---------------------------------| 
|---------------------------------| 
|---------1---------------5-------| 
|-1-3-3-3---3-3-3-1-3-3-3---1-1-1-| 
|---------------------------------| 
|---------------------------------| 
| 
| S S S S S S S S S S S S S S S S 
|---------------------------------| 
|---------------------------------| 
|-6-6-6-6-6-6-6-6-6-6-6-6-6-6-6-6-| 
|-6-6-6-6-6-6-6-6-6-6-6-6-6-6-6-6-| 
|-4-4-4-4-4-4-4-4-4-4-4-4-4-4-4-4-| 
|---------------------------------| 
 
 
  Eb5                             F5 
  S S S S S S S S S S S S S E S   W 
|---------4---------------x-x-x-|----------------|| 
|-4-6-6-6---6-6-6-4-6-6-6-x-x-x-|----------------|| 
|-------------------------x-x-x-|----------------|| 
|-------------------------x-x-x-|----------------|| 
|-------------------------x-x-x-|----------------|| 
|-------------------------x-x-x-|----------------|| 
| 
| S S S S S S S S S S S S S E S   q  q  q  E S S 
|-------------------------x-x-x-|------------x-x-|| 
|-------------------------x-x-x-|------------x-x-|| 
|---------1---------------x-x-x-|------------x-x-|| 
|-1-3-3-3---3-3-3-1-3-3-3-x-x-x-|-3--3--3--3-x-x-|| 
|-------------------------x-x-x-|-3--3--3--3-x-x-|| 
|-------------------------x-x-x-|-3--3--3--3-x-x-|| 
| 
| S S S S S S S S S S S S S E S   q  q  q  E S S 
|-------------------------x-x-x-|------------x-x-|| 
|-------------------------x-x-x-|------------x-x-|| 
|-------------------------x-x-x-|------------x-x-|| 
|-1-1-1-1-1-1-1-1-1-1-1-1-x-x-x-|-3--3--3--3-x-x-|| 
|-1-1-1-1-1-1-1-1-1-1-1-1-x-x-x-|-3--3--3--3-x-x-|| 
|-1-1-1-1-1-1-1-1-1-1-1-1-x-x-x-|-3--3--3--3-x-x-|| 
 
 
   Verse 
    N.C. 
    PM--------------------------------------------------- 
    S  S  S  S   S  S  S   S  S  S   S  S  S   S  S  S 
||------------------------------------------------------| 
||o----4--6-(6)--4--6-(6)--4--6-(6)--4--6-(6)--4--6-(6)-| 
||--5-(5)----5--(5)----5--(5)----5--(5)----5--(5)----5--| 
||------------------------------------------------------| 
||o-----------------------------------------------------| 
||------------------------------------------------------| 
 
 
 -------------------------------------------------| 
  S  S  S  S   S  S  S   S  S  S   S  S  S   S  S  S 
|-----------------------------------------------------| 
|----4--6-(6)--4--6-(6)--4--6-(6)--4--6-(6)--4--6-(6)-| 
|-3-(3)----3--(3)----3--(3)----3--(3)----3--(3)----3--| 
|-----------------------------------------------------| 
|-----------------------------------------------------| 
|-----------------------------------------------------| 
 
 
  PM--------------------------------------------------- 
  S  S  S  S   S  S  S   S  S  S   S  S  S   S  S  S 
|-----------------------------------------------------| 
|----1--2-(2)--1--2-(2)--1--2-(2)--1--2-(2)--1--2-(2)-| 
|-1-(1)----1--(1)----1--(1)----1--(1)----1--(1)----1--| 
|-----------------------------------------------------| 
|-----------------------------------------------------| 
|-----------------------------------------------------| 
 
 
                                                          Ab5      Eb5 
                                                                             Gtrs I, II, III 
 -------------------------------------------------| 
  S  S  S  S   S  S  S   S  S  S   S  S  S   S  S  S      E. S +E  E +S  S E S S S S 
|------------------------------------------------------||--------------------x-x-x-x-|| 
|----4--6-(6)--4--6-(6)--4--6-(6)--4--6-(6)--4--6-(6)-o||--------------------x-x-x-x-|| 
|-3-(3)----3--(3)----3--(3)----3--(3)----3--(3)----3---||--------------------x-x-x-x-|| 
|------------------------------------------------------||-6--6-(6)-1-(1)-1-1-x-x-x-x-|| 
|-----------------------------------------------------o||-6--6-(6)-1-(1)-1-1-x-x-x-x-|| 
|------------------------------------------------------||-6--6-(6)-1-(1)-1-1-x-x-x-x-|| 
 
 
   Chorus 
    $ 
    F5 
    Gtr I 
     S  S  S  S  S  S  S  S  S  S  S  S  S  S  S  S 
||--------------------------------------------------| 
||o-------------------------------------------------| 
||--10-10-10----------10-10-10----------10-10-------| 
||-----------10-10-10----------10-10-10-------10-10-| 
||o-------------------------------------------------| 
||--------------------------------------------------| 
| 
|   Gtr II 
|    S  S  S  S  S  S  S  S  S  S  S  S  S  S  S  S 
||--------------------------------------------------| 
||o-------------------------------------------------| 
||--------------------------------------------------| 
||---3--3--3--3--3--3--3--3--3--3--3--3--3--3--3--3-| 
||o--3--3--3--3--3--3--3--3--3--3--3--3--3--3--3--3-| 
||---3--3--3--3--3--3--3--3--3--3--3--3--3--3--3--3-| 
 
 
  Eb5 
   S  S  S  S  S  S  S  S  S  S  S  S  S  S  S  S 
|-------------------------------------------------| 
|-------------------------------------------------| 
|-12-12-12----------12-12-12----------12-12-------| 
|----------13-13-13----------13-13-13-------13-13-| 
|-------------------------------------------------| 
|-------------------------------------------------| 
| 
|  S  S  S  S  S  S  S  S  S  S  S  S  S  S  S  S 
|-------------------------------------------------| 
|-------------------------------------------------| 
|-------------------------------------------------| 
|--1--1--1--1--1--1--1--1--1--1--1--1--1--1--1--1-| 
|--1--1--1--1--1--1--1--1--1--1--1--1--1--1--1--1-| 
|--1--1--1--1--1--1--1--1--1--1--1--1--1--1--1--1-| 
 
 
  Db5 
   S  S  S  S  S  S  S  S  S  S  S  S  S  S  S  S 
|-------------------------------------------------| 
|-------------------------------------------------| 
|-13-13-13----------13-13-13----------13-13-------| 
|----------13-13-13----------13-13-13-------13-13-| 
|-------------------------------------------------| 
|-------------------------------------------------| 
| 
|  S  S  S  S  S  S  S  S  S  S  S  S  S  S  S  S 
|-------------------------------------------------| 
|-------------------------------------------------| 
|--6--6--6--6--6--6--6--6--6--6--6--6--6--6--6--6-| 
|--6--6--6--6--6--6--6--6--6--6--6--6--6--6--6--6-| 
|--4--4--4--4--4--4--4--4--4--4--4--4--4--4--4--4-| 
|-------------------------------------------------| 
 
 
                                   To Coda 
  Eb5                                           F5 
   S  S  S  S  S  S  S  S  S  S  S  S S E S     q  q  Q  E S S 
|-------------------------------------x-x-x--||------------x-x-|| 
|-------------------------------------x-x-x-o||------------x-x-|| 
|-12-12-12----------12-12-12----------x-x-x--||------------x-x-|| 
|----------13-13-13----------13-13-13-x-x-x--||-3--3-------x-x-|| 
|-------------------------------------x-x-x-o||-3--3-------x-x-|| 
|-------------------------------------x-x-x--||-3--3-------x-x-|| 
| 
|  S  S  S  S  S  S  S  S  S  S  S  S S E S     q  q  q  E S S 
|-------------------------------------x-x-x--||------------x-x-|| 
|-------------------------------------x-x-x-o||------------x-x-|| 
|-------------------------------------x-x-x--||------------x-x-|| 
|--1--1--1--1--1--1--1--1--1--1--1--1-x-x-x--||-3--3--3--3-x-x-|| 
|--1--1--1--1--1--1--1--1--1--1--1--1-x-x-x-o||-3--3--3--3-x-x-|| 
|--1--1--1--1--1--1--1--1--1--1--1--1-x-x-x--||-3--3--3--3-x-x-|| 
 
 
   Verse 
    N.C. 
    PM--------------------------------------------------- 
    S  S  S  S   S  S  S   S  S  S   S  S  S   S  S  S 
||------------------------------------------------------| 
||o----4--6-(6)--4--6-(6)--4--6-(6)--4--6-(6)--4--6-(6)-| 
||--5-(5)----5--(5)----5--(5)----5--(5)----5--(5)----5--| 
||------------------------------------------------------| 
||o-----------------------------------------------------| 
||------------------------------------------------------| 
 
 
 -------------------------------------------------| 
  S  S  S  S   S  S  S   S  S  S   S  S  S   S  S  S 
|-----------------------------------------------------| 
|----6--8-(8)--6--8-(8)--6--8-(8)--6--8-(8)--6--8-(8)-| 
|-5-(5)----5--(5)----5--(5)----5--(5)----5--(5)----5--| 
|-----------------------------------------------------| 
|-----------------------------------------------------| 
|-----------------------------------------------------| 
 
 
  PM--------------------------------------------------- 
  S  S  S  S   S  S  S   S  S  S   S  S  S   S  S  S 
|-----------------------------------------------------| 
|----8--9-(9)--8--9-(9)--8--9-(9)--8--9-(9)--8--9-(9)-| 
|-6-(6)----6--(6)----6--(6)----6--(6)----6--(6)----6--| 
|-----------------------------------------------------| 
|-----------------------------------------------------| 
|-----------------------------------------------------| 
 
 
                                                                             D.S. al Coda 
                                                                    Ab5          Eb5 
 ----------------------------------------------------------| 
  S  S   S   S   S   S   S   S   S   S   S   S   S   S   S   S      E. S +E  E E E S S S S 
|----------------------------------------------------------------||----------x-x---x--------|| 
|----9--11-(11)--9--11-(11)--9--11-(11)--9--11-(11)--9--11-(11)-o||----------x-x---x--------|| 
|-8-(8)------8--(8)------8--(8)------8--(8)------8--(8)------8---||----------x-x---x--------|| 
|----------------------------------------------------------------||-6--6-(6)-x-x-1-x-1-1-1--|| 
|---------------------------------------------------------------o||-6--6-(6)-x-x-1-x-1-1-1--|| 
|----------------------------------------------------------------||-6--6-(6)-x-x-1-x-1-1-1--|| 
 
 
 Interlude 
  & 
  N.C. 
  S S S S S S S S S S S S S S S S   S S S S S S S S S S S S S S S S 
|---------4---------------8-------|---------4---------------8--------| 
|-4-6-6-6---6-6-6-4-6-6-6---4-4-4-|-4-6-6-6---6-6-6-4-6-6-6---4-4-4--| 
|---------------------------------|----------------------------------| 
|---------------------------------|----------------------------------| 
|---------------------------------|----------------------------------| 
|---------------------------------|----------------------------------| 
 
 
  F5                                Eb5 
  S S S S S S S S S S S S S S S S   S S S S S S S S S S S S S S S S 
|---------4---------------8-------|---------4---------------8--------| 
|-4-6-6-6---6-6-6-4-6-6-6---4-4-4-|-4-6-6-6---6-6-6-4-6-6-6---4-4-4--| 
|---------------------------------|----------------------------------| 
|---------------------------------|----------------------------------| 
|---------------------------------|----------------------------------| 
|---------------------------------|----------------------------------| 
| 
| Gtrs II, III 
| S S e   S S S S E   E   Q         S S e   S S S S E   E   Q 
|---------------------------------|----------------------------------| 
|---------------------------------|----------------------------------| 
|---------------------------------|----------------------------------| 
|-3-3-3-----3-3-3-3---------------|-1-1-1-----1-1-1-1----------------| 
|-3-3-3-----3-3-3-3---------------|-1-1-1-----1-1-1-1----------------| 
|-3-3-3-----3-3-3-3---------------|-1-1-1-----1-1-1-1----------------| 
 
 
  Db5                               Eb5 
  S S S S S S S S S S S S S S S S   S S S S S S S S S S S   S  S  S S S 
|---------4---------------8-------|---------4------------------8---------| 
|-4-6-6-6---6-6-6-4-6-6-6---4-4-4-|-4-6-6-6---6-6-6-4-6-6---6-----4-4-4--| 
|---------------------------------|--------------------------------------| 
|---------------------------------|--------------------------------------| 
|---------------------------------|--------------------------------------| 
|---------------------------------|--------------------------------------| 
| 
|                                                       Gtr II 
| S S e   S S S S E   E   Q         S S e   S S S S E   E     +Q 
|---------------------------------|--------------------------------------| 
|---------------------------------|---------------------4b6---(4)--------| 
|-6-6-6-----6-6-6-6---------------|--------------------------------------| 
|-6-6-6-----6-6-6-6---------------|-1-1-1-----1-1-1-1--------------------| 
|-4-4-4-----4-4-4-4---------------|-1-1-1-----1-1-1-1--------------------| 
|---------------------------------|-1-1-1-----1-1-1-1--------------------| 
 
 
 Guitar Solo 
  F5  Eb5   F5    Db5Eb5  F5       Eb5     F5      Db5Eb5 
                          |-3--| 
   E. S +E  E +S  E. Q    S  S S S S  S  S S S  H 
|-----------------------|--------------------------------| 
|-/6--4-(4)-------------|--------------------------------| 
|-----------6-(6)-5--6--|-5--6-5---5---------------------| 
|-----------------------|--------8----8--6-5-------------| 
|-----------------------|--------------------6-/8--------| 
|-----------------------|--------------------------------| 
| 
|  E. S +E  E +S  E. Q    E.       S +E    E   +S  E. Q 
|-----------------------|--------------------------------| 
|-----------------------|--------------------------------| 
|-----------------6-----|--------------------------6-----| 
|--3--1-(1)-3-(3)-6--1--|-3--------1-(1)---3---(3)-6--1--| 
|--3--1-(1)-3-(3)-4--1--|-3--------1-(1)---3---(3)-4--1--| 
|--3--1-(1)-3-(3)----1--|-3--------1-(1)---3---(3)----1--| 
 
 
  Db5 
                          ~ 
  S S S S S S S S S S S S Q 
|---------------------------------| 
|---------------------------------| 
|-----------------5---5-6-8-------| 
|-------5-6-5-6-8---8-------------| 
|-8-6-8---------------------------| 
|---------------------------------| 
| 
| S S S S S S S S S S S S S S S S 
|---------------------------------| 
|---------------------------------| 
|-6-6-6-6-6-6-6-6-6-6-6-6-6-6-6-6-| 
|-6-6-6-6-6-6-6-6-6-6-6-6-6-6-6-6-| 
|-4-4-4-4-4-4-4-4-4-4-4-4-4-4-4-4-| 
|---------------------------------| 
 
 
  Eb5 
  |------3------| |------3-------|             |-------3--------| 
  S S   S S S   S S  S   S S S   S Q          +E        E       E 
|---------------------------------------------------------------------| 
|---------------------------------------------------------------------| 
|-6h8p==6-5h6p==5-----------------------------------------------------| 
|-----------------8h10p==8-6h8p==6-8b10-------(8)pb10r==8pb10r==8-----| 
|---------------------------------------------------------------------| 
|---------------------------------------------------------------------| 
| 
| S   S   S   S   S    S   S   S   S    S S S  S      S       S   S 
|---------------------------------------------------------------------| 
|---------------------------------------------------------------------| 
|-8---8---8---8---8----8---8---8---8----8-8-8--8------8-------8---8---| 
|-8---8---8---8---8----8---8---8---8----8-8-8--8------8-------8---8---| 
|-6---6---6---6---6----6---6---6---6----6-6-6--6------6-------6---6---| 
|---------------------------------------------------------------------| 
 
 
  F5       Eb5     F5      Db5    Eb5 
                ~~~             ~~~~~~ 
       |--3--|        |---3---| 
  E    S S   S  Q     S  S    S E +E  S S 
|-----------------------------------------| 
|-----------------------------------------| 
|-----------------------------------------| 
|-8b10r6h8p==6--------6h=8p===6-----------| 
|---------------8---------------8-(8)-6-8-| 
|-----------------------------------------| 
| 
| E.       S   +E  E +S    E.      Q 
|-----------------------------------------| 
|-----------------------------------------| 
|--------------------------6--------------| 
|-3--------1---(1)-3-(3)---6-------1------| 
|-3--------1---(1)-3-(3)---4-------1------| 
|-3--------1---(1)-3-(3)-----------1------| 
 
 
  F5     Eb5     F5      Db5Eb5 
                      ~~~ 
  S  S S S  S  S S S  Q     S  S  S  S 
|--------------------------------------| 
|--------------------------------------| 
|-----------5----5-6--8-----8s10-10-10-| 
|-6----6-8-----8-----------------------| 
|----8---------------------------------| 
|--------------------------------------| 
| 
| E.     S +E    E   +S  E. Q 
|--------------------------------------| 
|--------------------------------------| 
|------------------------6-------------| 
|-3------1-(1)---3---(3)-6--1----------| 
|-3------1-(1)---3---(3)-4--1----------| 
|-3------1-(1)---3---(3)----1----------| 
 
 
  Db5 
   S  S  S  S  S  S  S  S  S  S  S  S  S  S  S  S 
|-13----------------13----------------13----------| 
|----------13----------------13-------------13----| 
|----10-10----10-10----10-10----10-10----10----10-| 
|-------------------------------------------------| 
|-------------------------------------------------| 
|-------------------------------------------------| 
| 
|  S  S  S  S  S  S  S  S  S  S  S  S  S  S  S  S 
|-------------------------------------------------| 
|-------------------------------------------------| 
|--6--6--6--6--6--6--6--6--6--6--6--6--6--6--6--6-| 
|--6--6--6--6--6--6--6--6--6--6--6--6--6--6--6--6-| 
|--4--4--4--4--4--4--4--4--4--4--4--4--4--4--4--4-| 
|-------------------------------------------------| 
 
 
  Eb5                                               F5 
                                                                |-----3-----| 
   E.    S      +E   E      +S    E.   E       E     H          e    e      e      Q 
|-------------------------------------------------|----------------------------------------| 
|-13----13-----(13)-13-----(13)--16--(16)-----16--|-16--------(16)-(16)---(16)---(16)\-----| 
|-15b17-15b17==(15)-15b17==(15)-(15)--15b17==(15)-|-15b17-----(15)-(15)---(15)---(15)r\----| 
|-------------------------------------------------|----------------------------------------| 
|-------------------------------------------------|----------------------------------------| 
|-------------------------------------------------|----------------------------------------| 
| 
|                                                                                  PM----| 
|                                                                                  |--3--| 
|  E.    S      +E   E      +S    E.   E       E     q     q    E       S      S   E   E E 
|-------------------------------------------------|---------------------x------x-----------| 
|-------------------------------------------------|---------------------x------x-----------| 
|--8-----8------(8)--8------(8)---8----8-------8--|---------------------x------x-----------| 
|--8-----8------(8)--8------(8)---8----8-------8--|--3-----3----3-------x------x-----------| 
|--6-----6------(6)--6------(6)---6----6-------6--|--3-----3----3-------x------x---3---3-3-| 
|-------------------------------------------------|--3-----3----3-------x------x---3---3-3-| 
 
 
 Chorus 
  N.C. 
  Gtr I 
   S  S  S  S  S  S  S  S  S  S  S  S  S  S  S  S 
|-------------------------------------------------| 
|-------------------------------------------------| 
|-10-10-10----------10-10-10----------10-10-------| 
|----------10-10-10----------10-10-10-------10-10-| 
|-------------------------------------------------| 
|-------------------------------------------------| 
 
 
   S  S  S  S  S  S  S  S  S  S  S  S  S  S  S  S 
|--------------------------------------------------| 
|--------------------------------------------------| 
|-12-12-12----------12-12-12----------12-12--------| 
|----------13-13-13----------13-13-13-------13-13--| 
|--------------------------------------------------| 
|--------------------------------------------------| 
 
 
  Db5 
  Gtr I 
   S  S  S  S  S  S  S  S  S  S  S  S  S  S  S  S 
|-------------------------------------------------| 
|-------------------------------------------------| 
|-13-13-13----------13-13-13----------13-13-------| 
|----------13-13-13----------13-13-13-------13-13-| 
|-------------------------------------------------| 
|-------------------------------------------------| 
| 
| Gtr II 
|  S  S  S  S  S  S  S  S  S  S  S  S  S  S  S  S 
|-------------------------------------------------| 
|-------------------------------------------------| 
|--6--6--6--6--6--6--6--6--6--6--6--6--6--6--6--6-| 
|--6--6--6--6--6--6--6--6--6--6--6--6--6--6--6--6-| 
|--4--4--4--4--4--4--4--4--4--4--4--4--4--4--4--4-| 
|-------------------------------------------------| 
 
 
  Eb5 
   S  S  S  S  S  S  S  S  S  S  S  S S E S 
|-------------------------------------x-x-x-|| 
|-------------------------------------x-x-x-|| 
|-12-12-12----------12-12-12----------x-x-x-|| 
|----------13-13-13----------13-13-13-x-x-x-|| 
|-------------------------------------x-x-x-|| 
|-------------------------------------x-x-x-|| 
| 
|  S  S  S  S  S  S  S  S  S  S  S  S S E S 
|-------------------------------------x-x-x-|| 
|-------------------------------------x-x-x-|| 
|-------------------------------------x-x-x-|| 
|--1--1--1--1--1--1--1--1--1--1--1--1-x-x-x-|| 
|--1--1--1--1--1--1--1--1--1--1--1--1-x-x-x-|| 
|--1--1--1--1--1--1--1--1--1--1--1--1-x-x-x-|| 
 
 
    F5 
     S  S  S  S  S  S  S  S  S  S  S  S  S  S  S  S 
||--------------------------------------------------| 
||o-------------------------------------------------| 
||--10-10-10----------10-10-10----------10-10-------| 
||-----------10-10-10----------10-10-10-------10-10-| 
||o-------------------------------------------------| 
||--------------------------------------------------| 
| 
|    S  S  S  S  S  S  S  S  S  S  S  S  S  S  S  S 
||--------------------------------------------------| 
||o-------------------------------------------------| 
||--------------------------------------------------| 
||---3--3--3--3--3--3--3--3--3--3--3--3--3--3--3--3-| 
||o--3--3--3--3--3--3--3--3--3--3--3--3--3--3--3--3-| 
||---3--3--3--3--3--3--3--3--3--3--3--3--3--3--3--3-| 
 
 
  Eb5 
   S  S  S  S  S  S  S  S  S  S  S  S  S  S  S  S 
|-------------------------------------------------| 
|-------------------------------------------------| 
|-12-12-12----------12-12-12----------12-12-------| 
|----------13-13-13----------13-13-13-------13-13-| 
|-------------------------------------------------| 
|-------------------------------------------------| 
| 
|  S  S  S  S  S  S  S  S  S  S  S  S  S  S  S  S 
|-------------------------------------------------| 
|-------------------------------------------------| 
|-------------------------------------------------| 
|--1--1--1--1--1--1--1--1--1--1--1--1--1--1--1--1-| 
|--1--1--1--1--1--1--1--1--1--1--1--1--1--1--1--1-| 
|--1--1--1--1--1--1--1--1--1--1--1--1--1--1--1--1-| 
 
 
  Db5 
   S  S  S  S  S  S  S  S  S  S  S  S  S  S  S  S 
|-------------------------------------------------| 
|-------------------------------------------------| 
|-13-13-13----------13-13-13----------13-13-------| 
|----------13-13-13----------13-13-13-------13-13-| 
|-------------------------------------------------| 
|-------------------------------------------------| 
| 
|  S  S  S  S  S  S  S  S  S  S  S  S  S  S  S  S 
|-------------------------------------------------| 
|-------------------------------------------------| 
|--6--6--6--6--6--6--6--6--6--6--6--6--6--6--6--6-| 
|--6--6--6--6--6--6--6--6--6--6--6--6--6--6--6--6-| 
|--4--4--4--4--4--4--4--4--4--4--4--4--4--4--4--4-| 
|-------------------------------------------------| 
 
 
  Eb5 
   S  S  S  S  S  S  S  S  S  S  S  S S E S 
|-------------------------------------x-x-x--|| 
|-------------------------------------x-x-x-o|| 
|-12-12-12----------12-12-12----------x-x-x--|| 
|----------13-13-13----------13-13-13-x-x-x--|| 
|-------------------------------------x-x-x-o|| 
|-------------------------------------x-x-x--|| 
| 
|  S  S  S  S  S  S  S  S  S  S  S  S S E S 
|-------------------------------------x-x-x--|| 
|-------------------------------------x-x-x-o|| 
|-------------------------------------x-x-x--|| 
|--1--1--1--1--1--1--1--1--1--1--1--1-x-x-x--|| 
|--1--1--1--1--1--1--1--1--1--1--1--1-x-x-x-o|| 
|--1--1--1--1--1--1--1--1--1--1--1--1-x-x-x--|| 
 
 
  F5 
  S S S S S S S S S S S S S S S S   S S S S S S S S S S S S S S S S 
|---------------------------------|-------------------------x-x-x-x--|| 
|-6-6-6-6-6-6-6-6-6-6-6-6-6-6-6-6-|-6-6-6-6-6-6-6-6-6-6-6-6-x-x-x-x--|| 
|---------------------------------|-------------------------x-x-x-x--|| 
|-3-3-3-3-3-3-3-3-3-3-3-3-3-3-3-3-|-3-3-3-3-3-3-3-3-3-3-3-3-x-x-x-x--|| 
|---------------------------------|-------------------------x-x-x-x--|| 
|---------------------------------|-------------------------x-x-x-x--|| 
| 
|                                   Gtrs II, III 
| q       q       q       q         q       q       q       q 
|---------------------------------|----------------------------------|| 
|---------------------------------|----------------------------------|| 
|---------------------------------|----------------------------------|| 
|-3-------3-------3-------3-------|-3-------3-------3-------3--------|| 
|-3-------3-------3-------3-------|-3-------3-------3-------3--------|| 
|-3-------3-------3-------3-------|-3-------3-------3-------3--------|| 
 
 
   Outro 
    F5                                Eb5 
    S S S S S S S S S S S S S S S S   S S S S S S S S S S S S S S S S 
||----------4---------------8-------|---------4---------------8-------| 
||o-4-6-6-6---6-6-6-4-6-6-6---4-4-4-|-4-6-6-6---6-6-6-4-6-6-6---4-4-4-| 
||----------------------------------|---------------------------------| 
||----------------------------------|---------------------------------| 
||o---------------------------------|---------------------------------| 
||----------------------------------|---------------------------------| 
| 
|   S S S S S S S S S S S S S S S S   S S S S S S S S S S S S S S S S 
||----------------------------------|---------------------------------| 
||o---------------------------------|---------------------------------| 
||----------1---------------5-------|---------1---------------5-------| 
||--1-3-3-3---3-3-3-1-3-3-3---1-1-1-|-1-3-3-3---3-3-3-1-3-3-3---1-1-1-| 
||o---------------------------------|---------------------------------| 
||----------------------------------|---------------------------------| 
| 
|   Gtr III 
|   S S S S S S S S S S S S S S S S   S S S S S S S S S S S S S S S S 
||----------------------------------|---------------------------------| 
||o---------------------------------|---------------------------------| 
||----------------------------------|---------------------------------| 
||--3-3-3-3-3-3-3-3-3-3-3-3-3-3-3-3-|-1-1-1-1-1-1-1-1-1-1-1-1-1-1-1-1-| 
||o-3-3-3-3-3-3-3-3-3-3-3-3-3-3-3-3-|-1-1-1-1-1-1-1-1-1-1-1-1-1-1-1-1-| 
||--3-3-3-3-3-3-3-3-3-3-3-3-3-3-3-3-|-1-1-1-1-1-1-1-1-1-1-1-1-1-1-1-1-| 
 
 
  Db5                               Eb5 
  S S S S S S S S S S S S S S S S   S S S S S S S S S S S S S E S 
|---------4---------------8-------|---------4---------------x-x-x--|| 
|-4-6-6-6---6-6-6-4-6-6-6---4-4-4-|-4-6-6-6---6-6-6-4-6-6-6-x-x-x-o|| 
|---------------------------------|-------------------------x-x-x--|| 
|---------------------------------|-------------------------x-x-x--|| 
|---------------------------------|-------------------------x-x-x-o|| 
|---------------------------------|-------------------------x-x-x--|| 
| 
| S S S S S S S S S S S S S S S S   S S S S S S S S S S S S S E S 
|---------------------------------|-------------------------x-x-x--|| 
|---------------------------------|-------------------------x-x-x-o|| 
|---------1---------------5-------|---------1---------------x-x-x--|| 
|-1-3-3-3---3-3-3-1-3-3-3---1-1-1-|-1-3-3-3---3-3-3-1-3-3-3-x-x-x--|| 
|---------------------------------|-------------------------x-x-x-o|| 
|---------------------------------|-------------------------x-x-x--|| 
| 
| S S S S S S S S S S S S S S S S   S S S S S S S S S S S S S E S 
|---------------------------------|-------------------------x-x-x--|| 
|---------------------------------|-------------------------x-x-x-o|| 
|-6-6-6-6-6-6-6-6-6-6-6-6-6-6-6-6-|-------------------------x-x-x--|| 
|-6-6-6-6-6-6-6-6-6-6-6-6-6-6-6-6-|-1-1-1-1-1-1-1-1-1-1-1-1-x-x-x--|| 
|-4-4-4-4-4-4-4-4-4-4-4-4-4-4-4-4-|-1-1-1-1-1-1-1-1-1-1-1-1-x-x-x-o|| 
|---------------------------------|-1-1-1-1-1-1-1-1-1-1-1-1-x-x-x--|| 
 
 
By : Miooojo 

	  

No existe una video leccione para esta canción

request
LosAcordes
Buscar
auto avanzar rasgueos aumentar disminuir cambiar color esconder acordes gráficos
losacordes exhibir acordes losacordes youTube video losacordes ocultar tabs losacordes ir hacia arriba losacordes