Anais Mitchell

Início > Anais Mitc... > acordes

Tailor Tablatura

Anais Mitchell

Dificultad:Ningún gradoNingún grado

ubirbomfim

tuner correct add songbook print version text version salvar en e-mail
acordesukuleletablaturabajobateríaarmónicaflautacavacopiano Guitar Pro
acordes

Tailor

	   

Intro: 

e|-----------------------------------------1------0---------| 
B|-----3------3------3------3------3-------3------3---------| 
G|-----0------0------0------0------0-------0------0---------| 
D|-----0------0------0------0------0------------------------| 
A|---------3------2-----------------------------------------| 
E|--3---------------------2------3------3------3------------| 

e|------------------------------------------------------------| 
B|--------------3--------------3----------------3----------3--| 
G|-----------0----0---------0----0-----------0-----0-------0--| 
D|---------0---------0----0----------0-----0---------0-----0--| 
A|------3--------------2--------------------------------------| 
E|---------------------------------------2---------------3----| 


Verse: 
e|-----------1-----0---------------------------| 
B|-----3-----3-----3--------------3------------| 
G|-----0-----0-----0----------0------0---------| 
D|-----0-------------------0-------------0-----| 
A|----------------------3----------------------| 
E|--3-----1-----3------------------------------| 

e|-------------------------------------------------------------------| 
B|-----------------------3------------------3----------------3-------| 
G|-------------------0-----0------------0-----0--------------0-------| 
D|----------------0------------0-----0------------0----------0-------| 
A|-------------2---------------------------------------0-------------| 
E|---------------------------------2----------------------3----------| 

End of Verse: 
e|---------------------------------------------------------------|--------| 
B|------------3------------------3----------------3--------------|----3---| 
G|--------0------0-----------0-----0----------0-----0------------|----2---| 
D|-----0------------0-----0-----------0----0-----------0---------|----0---| 
A|--3------------------2-----------------------------------------|--------| 
E|----------------------------------------2-----------------3----|-2------| 

This is where she breaks from pattern: 

Now that he's gone away... 
e|-----------1------0-------------------------------------------------------| 
B|-----3-----3------3-----------3--------------3------------3-----------3---| 
G|-----2-----0------0--------0----0---------0---0---------0---0---------0---| 
D|-----0-------------------0---------0----0--------0----0-------0-------0---| 
A|----------------------3---------------2-------------------------0---------| 
E|--2-----3------3-------------------------------------2------------3-------| 

Didn't I glean in my father's eye... 
e|----------------------------------------------------------------------| 
B|-----1-----3-----1-----3----------------------------------------------| 
G|-----2-----0-----2-----0----------------------------------------------| 
D|-----3-----0-----3-----0----------------------------------------------| 
A|----------------------------------------------------------------------| 
E|--1-----3-----1-----3-------------------------------------------------| 

Didn't I split my mother's side... 
e|----------------------------------------------------------------------| 
B|-----3-----3-----1------3---------------------------------------------| 
G|-----2-----0-----2------0---------------------------------------------| 
D|-----0-----0-----3------0---------------------------------------------| 
A|----------------------------------------------------------------------| 
E|--2-----3-----1------3------------------------------------------------| 

Didn't I drink her nipple dry... 
e|-------------------------------------------------------------------------| 
B|-----3------1------1-----------------------------------------------------| 
G|-----0------0------2-----------------------------------------------------| 
D|-----0------0------3-----------------------------------------------------| 
A|--1----------------------------------------------------------------------| 
E|---------0------1--------------------------------------------------------| 

No one taught me how to cry... 
e|------------------------------------------------------------------------| 
B|-----3-----1-----3-----1-----3-----3-----1---3--------------------------| 
G|-----0-----2-----2-----2-----0-----0-----2---0--------------------------| 
D|-----0-----3-----0-----3-----0-----0-----3---0--------------------------| 
A|---------------------------1--------------------------------------------| 
E|--3-----1-----2-----1------------0-----1-----3--------------------------| 
	  

No existe una video leccione para esta canción

request
LosAcordes
Buscar
auto avanzar rasgueos aumentar disminuir cambiar color esconder acordes gráficos
losacordes exhibir acordes losacordes youTube video losacordes ocultar tabs losacordes ir hacia arriba losacordes