All American Rejects

Início > All Americ... > acordes

Gives You Hell Tablatura

All American Rejects

Dificultad:PrincipiantePrincipiante

europeu

tuner correct add songbook print version text version salvar en e-mail
acordesukuleletablaturabajobateríaarmónicaflautacavacopiano Guitar Pro
acordes

Gives You Hell

	  Tuning: Standard (EADGBe) 
  B: 799877 A: 577655 C#m: x46654 
 |~ vibrato 
 |x block notes 

Intro: (2x) 
e|------------------------------| 
B|------------------------------| 
G|------9~-----6~-----6~-----6~-| 
D|------------------------------| 
A|--7-7----4-4------------------| 
E|----------------5-5----5-5----| 

Verse 1 & 2: Always the same thing. (10x) 
e|------------------------------| 
B|------------------------------| 
G|------9~-----6~-----6~-----6~-| 
D|------------------------------| 
A|--7-7----4-4------------------| 
E|----------------5-5----5-5----| 
 |I wake up every evening, with a big smile on my|  
 |face. And it never feels out of place.| 
 |And you're still probably working, at a 9 to 5 pace.|  
 |I wonder how bad that tastes, when you see my| 
 |face. I hope it gives you hell, I hope it gives you hell. When you walk my|  
 |way. I hope it gives you hell, I hope it gives you hell.| 

 |Now, where's your picket fence love. And where's that shiny car.| 
 |Did it ever get you far?|  
 |You never seemed so tense, love. Never seen you fall so| 
 |hard. Do you know where you are?|  

Pre-Chorus:  
      B        C#m    A         B    B        C#m      A      B     
 |And truth be told I miss you.  And truth be told I'm lying.  

After the pre-Chorus: 
e|--------------| 
B|--------------| 
G|--------------| 
D|--2-----4--5--| 
A|-----4--------|   
E|--------------| 

Chorus:  
e|------------------------------| 
B|------------------------------| 
G|--9-9x---6-6x-----------------| 
D|--9-9x---6-6x---7-7x---7-7x---| 
A|--7-7x---4-4x---7-7x---7-7x---| 
E|----------------5-5x---5-5x---| 
  When you see my (no chords)  
 |face. I hope it gives you hell, I hope it gives you hell. When you walk my| 
 |way. I hope it gives you hell, I hope it gives you hell. If you find a| 
 |man that's worth the damn and treats you well. Then he's a|  
 |fool you're just as well. Hope it gives you hell. Hope it gives you hell.| 

After the Chorus: 
e|-----------| 
B|-----------| 
G|-----------| 
D|-----------| 
A|-----------|  
E|--4--2--0--| 

Mini-solo: Since repeating Intro (2x) 
e|--9-7---5---2-----9-7---5---2-7---9-7-------------| 
B|------9---9---1-------9---9-----------------------| 
G|--------------------------------------------------| 
D|--------------------------------------------------| 
A|-------------------------------------------0-4-2--|  
E|---------------------------------------0h4--------| 

Verse 3: (2x) 
e|------------------------------| 
B|------------------------------| 
G|------9~-----6~-----6~-----6~-| 
D|------------------------------| 
A|--7-7----4-4------------------| 
E|----------------5-5----5-5----| 
 |Tomorrow you'll be thinking to yourself. Where did it all go wrong?| 
 |But the list goes on and on| 

Repeat Pre-Chorus & Chorus 

Bridge: 
 |Now you'll never see, what you've done to me.| 
e|----7----------------------4-----------------| 
B|----7----------------------5-----------------| 
G|----8----------------------6-----------------| 
D|----9----------------------6-----------------| 
A|----9----------------------4-----------------| 
E|----7----------------------x-----------------| 

 |You can take back your memories. They're no good to me.|  
e|--------5--------------------------------7-------------| 
B|--------5--------------------------------7-------------| 
G|--------6--------------------------------8-------------| 
D|--------7--------------------------------9-------------| 
A|--------7--------------------------------9-------------| 
E|--------5--------------------------------7-------------| 

 |And here's all your lies. If you look me in the eyes.| 
e|----7------------------------4-----------------------| 
B|----7------------------------5-----------------------| 
G|----8------------------------6-----------------------| 
D|----9------------------------6-----------------------| 
A|----9------------------------4-----------------------| 
E|----7------------------------x-----------------------| 

           A                       B 
 |With the sad, sad look, that you wear so well.| 

Chorus: Without guitars (only drum) 
  When you see my face. I hope it gives you hell, I hope it gives you hell. 
  When you walk my way. I hope it gives you hell, I hope it gives you hell.  
  If you find a man that's worth the damn and treats you well. 
  Then he's a fool you're just as well hope it gives you hell. 

Chorus: (6x) 
You can play the note more than only 2 times 
e|------------------------------| 
B|------------------------------| 
G|--9-9x---6-6x-----------------| 
D|--9-9x---6-6x---7-7x---7-7x---| 
A|--7-7x---4-4x---7-7x---7-7x---| 
E|----------------5-5x---5-5x---| 
  When you see my (no chords)  
 |face. I hope it gives you hell, I hope it gives you hell. When you walk my| 
 |way. I hope it gives you hell, I hope it gives you hell. When you hear this| 
 |song and you sing along well you'll never tell. And you're the |  
 | fool I've just as well I hope it gives you hell.|  
 |When you hear this song I hope that it will give you hell.|  
 |You can sing along I hope it puts you through|  

All music stops: 
  Hell. 
	  

No existe una video leccione para esta canción

request
Aumentar uno tonoAumentar uno tono
Aumentar uno semi-tonoAumentar uno semi-tono
Disminuir uno semi-tonoDisminuir uno semi-tono
Disminuir uno tonoDisminuir uno semi-tono
LosAcordes
Buscar
auto avanzar rasgueos aumentar disminuir cambiar color esconder acordes gráficos
losacordes exhibir acordes losacordes youTube video losacordes ocultar tabs losacordes ir hacia arriba losacordes