Alegría

Início > Alegría > acordes

Mujer Y Cervecita Tablatura

Alegría

Dificultad:Ningún gradoNingún grado

robe_medeiros

tuner correct add songbook print version text version salvar en e-mail
acordesukuleletablaturabajobateríaarmónicaflautacavacopiano Guitar Pro
acordes

Mujer Y Cervecita

	  =INTRO (1ªParte)= 

     A# Cm          A# Cm          A# Cm          A# Cm Cm Cm Cm 
 E---------| | | |--------| | | |--------| | | |----------------- 
 B---------| | | |--------| | | |--------| | | |----------------- 
 G---3--5--| | | |--3--5--| | | |--3--5--| | | |--3--5--5--5--5-- 
 D---3--5--| | | |--3--5--| | | |--3--5--| | | |--3--5--5--5--5-- 
 A---1--3--| | | |--1--3--| | | |--1--3--| | | |--1--3--3--3--3-- 
 E---------| | | |--------| | | |--------| | | |----------------- 

=INTRO (2ªParte)= 

    A#                                   Cm 
 E--6-6-----------------6-6-----------11-10-8-8--- 'eh! eh eh!' 
 B-----8-9-8-----------8---8-9-8-----8------------ 
 G----------8------8--8---------8---8------------- 
 D-----------10--10-10-----------10--------------- 
 A------------------------------------------------ 
 E------------------------------------------------ 

    A#                                   Cm 
 E--6-6-----------------6-6-----------11-10-8-8--- 
 B-----8-9-8-----------8---8-9-8-----8------------ 
 G----------8------8--8---------8---8------------- 
 D-----------10--10-10-----------10--------------- 
 A------------------------------------------------ 
 E------------------------------------------------ 

=INTRO (3ªParte)= 

             G#          A#       Cm 
 E--14-13-11-14--13-11-9-13--11-9-13------- 
 B----------------------------------13-13-- 
 G----------------------------------------- 
 D----------------------------------------- 
 A----------------------------------------- 
 E----------------------------------------- 

             G#          A#       Cm 
 E--14-13-11-14--13-11-9-13--11------- 
 B-----------------------------14-13--    '¡muévete!' 
 G------------------------------------ 
 D------------------------------------ 
 A------------------------------------ 
 E------------------------------------ 

             G#          A#       Cm 
 E--14-13-11-14--13-11-9-13--11-9-13------- 
 B----------------------------------13-13-- 
 G----------------------------------------- 
 D----------------------------------------- 
 A----------------------------------------- 
 E----------------------------------------- 

             G#          A#       Cm 
 E--14-13-11-14--13-11-9-13--11------- 
 B-----------------------------14-13-- 
 G------------------------------------ 
 D------------------------------------ 
 A------------------------------------ 
 E------------------------------------ 

=ESTROFA= 
    Cm 
 TÚ SABES COMO SOY, ME GUSTA SER ASÍ, 
                 A#              Cm 
 ME GUSTAN LAS MUJERE' Y LA CERVECITA, 
               Cm 
 NO TE SIENTAS MAL, NO TE VAS A ENOJAR, 
            A#             Cm 
 AMIGO NADA MÁS DE LA CERVECITA... 


* Ahora se repite la 2ª y 3ª Parte de la INTRO * 


=ESTROFA= 
    Cm 
 TÚ SABES COMO SOY, ME GUSTA SER ASÍ, 
                 A#              Cm 
 ME GUSTAN LAS MUJERE' Y LA CERVECITA, 
               Cm 
 NO TE SIENTAS MAL, NO TE VAS A ENOJAR, 
            A#             Cm 
 AMIGO NADA MÁS DE LA CERVECITA... 

=CORO= 
           G#                        Cm 
 NO SEAS CELOSA... SI YO TE QUIERO A TI, 
         G#                       Cm 
 AY CAPRICHOSA... SI TÚ ERES PARA MÍ, 
              A#                  G# 
 ERES LA PREFERIDA, ERES LA MÁS BONITA 
                Cm 
 DE LAS QUE CONOCÍ... 
                A#                        G# 
 CONTIGO ME CASARÍA PARA QUE FUERAS DE MI VIDA 
              Cm 
 MI QUERIDA MUJER... 

* Ahora se repite la INTRO completa * 

* Ahora se repite la ESTROFA* 

* Ahora se repite la 2ª y 3ª Parte de la INTRO * 

* Ahora se repite la ESTROFA* 

* Ahora se repite la 2ª y 3ª Parte de la INTRO * 

* Ahora se repite la ESTROFA y el CORO * 

=FINAL= 
                A#                        G# 
 CONTIGO ME CASARÍA PARA QUE FUERAS DE MI VIDA 
              Cm 
 MI QUERIDA MUJER... 

* Ahora se repite la 3ª Parte de la INTRO * 

    A# Cm Cm Cm Cm 
 E----------------- 
 B----------------- 
 G--3--5--5--5--5-- 
 D--3--5--5--5--5-- 
 A--1--3--3--3--3-- 
 E-----------------
	  

No existe una video leccione para esta canción

request
Aumentar uno tonoAumentar uno tono
Aumentar uno semi-tonoAumentar uno semi-tono
Disminuir uno semi-tonoDisminuir uno semi-tono
Disminuir uno tonoDisminuir uno semi-tono
LosAcordes
Buscar
auto avanzar rasgueos aumentar disminuir cambiar color esconder acordes gráficos
losacordes exhibir acordes losacordes youTube video losacordes ocultar tabs losacordes ir hacia arriba losacordes