Alan Jackson

Início > Alan Jacks... > acordes

Chattahoochee Correct Tablatura

Alan Jackson

Dificultad:ExpertoExperto

tuner correct add songbook print version text version salvar en e-mail
acordesukuleletablaturabajobateríaarmónicaflautacavacopiano Guitar Pro
acordes

Chattahoochee Correct

	                                                                           
E---|-----------------------|--------------------------|---------------- 
B---|-----------------------|--------------------------|---------------- 
G---|-----------------------|--------------------------|---------------- 
D---|-----------------------|--------------------------|---------------- 
A---|--2/3--3--2/3--3--2/3--|--3--2/3--3---------------|---------------- 
E---|-----------------------|-------------6p5p3--5--3--|---------------- 
                                                                         
 
                                                                         
E------------------------|---------------------------|------------------ 
B------------------------|---------------------------|------------------ 
G------------------------|---------------------------|------------------ 
D------------------------|------------------5--7--5--|------------------ 
A---2/3--3--2/3--3--2/3--|--3--2/3--3--5/7-----------|------------------ 
E------------------------|---------------------------|------------------ 
                                                                         
 
                                                                         
E-------------------------|---------------|-----------------------|----- 
B-------------------------|---------------|-----------------------|----- 
G-------------------------|---------------|-----------------------|----- 
D-------------------------|---------------|-----------------------|----- 
A---2/3--3--2/3--3--3--3--|--------5^--3--|--2/3--3--2/3--3--2/3--|----- 
E-------------------------|--5--3---------|-----------------------|----- 
                                                                         
 
                                                                         
E----------------------------|-------------------------|---------------- 
B----------------------------|-------------------------|---------------- 
G----------------------------|--5----------------------|---------------- 
D-------------------5--7-----|--------7-----5--7-------|---------------- 
A---3--2/3--3--5/7--------7--|-----6-----7--------6/7--|---------------- 
E----------------------------|-------------------------|---------------- 
                                                                         
 
                                                                         
E-------------|--------------------------------------------------------- 
B-------------|--------------------------------------------------------- 
G-------------|--------------------------------------------------------- 
D---5--7------|--------------------------------------------------------- 
A---------5^--|--3------------------------------------------------------ 
E-------------|--------------------------------------------------------- 
                                                                         
 
 
 
======================================================================== 
==                       TABLATURE EXPLANATION                        == 
======================================================================== 
 
----------                ----------                ----t--- 
----5h8--- Hammeron       ----(8)--- Ghost          ----6--- Tap 
----------                ---------- Note           -------- 
----5p8--- Pulloff        ----------                -------- 
 
----------                ----------                -----p-- 
----5/8--- Slide Up       -----x---- Dead           -----7-- Pop 
----------                ---------- Note           --s----- 
----58--- Slide Down     ----------                --5----- Slap  
 
----------                ||------|| Repeat         -------- 
----5~~~-- Vibrato        ||*----*||                ---5^--- Bend 
----------                ||*----*||                -------- 
----------                ||------||                -------- 
 
----------                ----------                -------- 
-4:------- Time           ----------                -------- 
-4:------- Signature      ----------                -------- 
----------                ----------                -------- 
 
Rhythm: 
  w = whole note            W = dotted whole 
  h = half note             H = dotted half 
  q = quarter note          Q = dotted quarter 
  e = eighth note           E = dotted eighth 
  s = sixteenth note        S = dotted sixteenth 
  t = 32nd note             T = dotted 32nd 
  x = 64th note             X = dotted 64th 
  ^ = triplet 
 
 

	  

No existe una video leccione para esta canción

request
LosAcordes
Buscar
auto avanzar rasgueos aumentar disminuir cambiar color esconder acordes gráficos
losacordes exhibir acordes losacordes youTube video losacordes ocultar tabs losacordes ir hacia arriba losacordes