Alabama

Início > Alabama > acordes

If You're Gonna Play In Texas Tablatura

Alabama

Dificultad:ExpertoExperto

tuner correct add songbook print version text version salvar en e-mail
acordesukuleletablaturabajobateríaarmónicaflautacavacopiano Guitar Pro
acordes

If You're Gonna Play In Texas

Áño: 1984 - Álbum: 16 Biggest Hits

	  *********************************************************************** 
 
h   =   hammer-on                         pbr   =   pre-bend & release 
 
/   =   slide up                          b     =   bend 
 
*********************************************************************** 
 
 
FILL NEAR START OF SONG 
 
 
E--------------------------------------| 
B----------------------------5---------| 
G----------------2------------4pbr-2---| 
D--2h4--2h4--2h4---2h4-2-0-------------| 
A--------------------------------------| 
E--------------------------------------| 
 
 
SOLO 
 
 
E------------------------------7-5-7-5-----| 
B------------------------------------------| 
G----------2-----------------8-7-6-7-5h6---| 
D----------2-----7--9b-9-7--7--------------| 
A--------0---3/9---------------------------| 
E--0-3/5-----------------------------------| 
 

	  

No existe una video leccione para esta canción

request
LosAcordes
Buscar
auto avanzar rasgueos aumentar disminuir cambiar color esconder acordes gráficos
losacordes exhibir acordes losacordes youTube video losacordes ocultar tabs losacordes ir hacia arriba losacordes