After The Fall

Início > After The ... > acordes

Mirror Mirror (ver 2) Tablatura

After The Fall

Dificultad:Ningún gradoNingún grado

tuner correct add songbook print version text version salvar en e-mail
acordesukuleletablaturabajobateríaarmónicaflautacavacopiano Guitar Pro
acordes

Mirror Mirror (ver 2)

	  intro/chorus 
e|-------------------------| 
B|-------------------------| 
G|---3--5--7---------------| 
D|---3--5--7---3--5--7-----| 
A|---1--3--5---3--5--7-----| 
E|-------------1--3--5-----| 
 
 
 
 
 
 
prechorus 
 
e|-----------------------------| 
B|-----------------------------| 
G|-----------------------------| 
D|------3------3------2------2-| 
A|--1-1----1-1----0-0----0-0---| 
E|-----------------------------| 
 
 
e|----------| 
B|----------| 
G|-3-----2--| 
D|-3--3--2--| 
A|-1--3--0--| 
E|----1-----| 
   x  x  x 
 
listen to cd for strumming 
 
palm muted strumming and open up to move into the chorus 
 
bridge is the same shords as the prechorus but strummed. 
 
and thats about it. 

	  

No existe una video leccione para esta canción

request
LosAcordes
Buscar
auto avanzar rasgueos aumentar disminuir cambiar color esconder acordes gráficos
losacordes exhibir acordes losacordes youTube video losacordes ocultar tabs losacordes ir hacia arriba losacordes