A Palo Seko

Início > A Palo Sek... > acordes

Odio El 92 Tablatura

A Palo Seko

Dificultad:Ningún gradoNingún grado

tuner correct add songbook print version text version salvar en e-mail
acordesukuleletablaturabajobateríaarmónicaflautacavacopiano Guitar Pro
acordes

Odio El 92

	     Intro de bajo: 
G|------------------------------------| 
D|------------------------------------| 
A|--5-5-5-5--5-5-5-5--5-5-5-5--3------| 
E|--------------------------------3---| 



  Intro: 
e|---------------| 
B|---------------| 
G|---------------| 
D|--7----5-------| 
A|--5----3----5--| 
E|------------3--| 



  Riff 1:     Odio el 92 se celebra... 
e|------------------------------------| 
B|------------------------------------| 
G|------------------------------------| 
D|--7-7-7-7---7-7-7-7---7-7-7-7--5----| 
A|--5-5-5-5-0-5-5-5-5-0-5-5-5-5--3-5--| 
E|---------------------------------3--| 




  Riff 2:  ...La invasion, la destruccion.... 
e|----------------| 
B|----------------| 
G|----------------| 
D|--7-7-7-7--5----| 
A|--5-5-5-5--3-5--| 
E|-------------3--| 




   Riff 3:  ...infantil capital de la Europa cultural 
e|---------------------------------------------------| 
B|---------------------------------------------------| 
G|---------------------------------------------------| 
D|--7-x-x---------------------7-x-x-------7-x-x------| 
A|--5-x-x-7-x-x-5-x-x-7--x-x--5-x-x-7-x-x-5-x-x-7..--| 
E|--------5-x-x-3-x-x-5--x-x--------5-x-x-------5..--| 




  Riff 4:  (En esta parte van a toa ostia) 
e|---------------------------------------| 
B|---------------------------------------| 
G|---------------------------------------| 
D|--------5--------5--------5--------7---| 
A|--0-0-0-3--0-0-0-3--0-0-0-3--0-0-0-5---| 
E|---------------------------------------| 




  Riff 5:  (es el ke va bajo el solo y antes de terminar) 
e|------------------------------|| 
B|------------------------------|| 
G|------------------------------|| 
D|--7-x-7--5-x-5----------------|| 
A|--5-x-5--3-x-3--5-x-5--7-x-7--|| 
E|----------------3-x-3--5-x-5--|| 




           Na mas, farta er solo, ke esta chungo y no hay ganas 
           de sakarlo. Pa lo ke sea estoy en: 




                   [email protected] 


	  

No existe una video leccione para esta canción

request
LosAcordes
Buscar
auto avanzar rasgueos aumentar disminuir cambiar color esconder acordes gráficos
losacordes exhibir acordes losacordes youTube video losacordes ocultar tabs losacordes ir hacia arriba losacordes