Dream Theater

Início > Dream Thea... > acordes

New Millenium On Portnoy Video Tablatura Batería

Dream Theater

Dificultad:Ningún gradoNingún grado

tuner correct add songbook print version text version salvar en e-mail
acordesukuleletablaturabajobateríaarmónicaflautacavacopiano Guitar Pro
acordes

New Millenium On Portnoy Video

	  
Song: New Millenium on Portnoy Video
Artist: Dream Theater
Album: Mike Portnoy: Liquid Drum Theater Video
Drummer: Mike Portnoy
Originally transcribed by: Steve Ferraro
Put into tab format by: Dean Christesen
Note: This tab is transcribed by Steve Ferraro, and is the official transcription of the song.  I wish for no credit, but I just enjoy doing this.
Note 2: This is how Mike Portnoy plays it on his video.  This obviously does not match the real recorded performace.
This tab starts 4:57 from start of song.
Key:
H   |x  = closed hi-hat
H   |s  = partially open hi-hat
H   |X  = open hi-hat
R   |x  = ride
R   |b  = bell of ride
C   |x  = crash strike
C   |s  = splash cymbal
C   |c  = china cymbal
C   |1  = Max Stax Number 1
C   |2  = Max Stax Number 2
t   |o  = timbalito
t2  |o  = octoban
T   |o  = Tom 1
T   |x  = Play on rim of tom
T2  |o  = Tom 2
S   |o  = snare drum
T3  |o  = Tom 3
T4  |o  = Tom 4
F   |o  = Floor tom 1
F2  |o  = Floor tom 2 (gong bass)
B   |o  = Bass drum 1
B2  |o  = Bass drum 2
Hf  |x  = Hi-hat w/ foot
                7/4
S   |------F-----------F---------|
F   |o-----------o-----------o---|
F2  |o-----------o-----------o---|
B   |o-----------o-----------o---|
    (1 + 2 + 3 + 4 + 5 + 6 + 7 + )
          4/4                                     7/4
C   |x---------------|----------------|------------x---------------|
C   |c---------------|----------------|------------c---------------|
S   |------F---------|--F-------------|--F---------------F---------|
F   |------------o---|--------o---o---|--------o---------------o---|
F2  |------------o---|--------o---o---|--------o---------------o---|
B   |o-----------o---|--------o---o---|--------o---o-----------o---|
    (1 + 2 + 3 + 4 + |1 + 2 + 3 + 4 + |1 + 2 + 3 + 4 + 5 + 6 + 7 + )
           4/4                             3/4
S   |--F-------------|------F---------|--F---------|
F   |--------o---o---|o-----------o---|--------o---|
F2  |--------o---o---|o-----------o---|--------o---|
B   |--------o---o---|o-----------o---|--------o---|
    (1 + 2 + 3 + 4 + |1 + 2 + 3 + 4 + |1 + 2 + 3 + )
           4/4                                              3/4
C   |x---------------|----------------|----------------|-----------s|
C   |c---------------|----------------|----------------|----------2-|
R   |--x-x---x---x-x-|x---x---x-x---x-|x-x-x---x---x-x-|--x-x-x-----|
H   |---x-----X---g-x|-----X-x-x-----X|---x-----X---x--|---x-x------|
S   |------o---------|--o---------o---|------o---------|o-------oo--|
B   |o----o------o---|-o------o--o----|o----o------o--o|----o--o--oo|
Hf  |----------x-----|------x---------|----------x-----|------------|
    (1 + 2 + 3 + 4 + |1 + 2 + 3 + 4 + |1 + 2 + 3 + 4 + |1 + 2 + 3 + )
          4/4                                                3/4
>   |----------------|----------------|>--->--->--->---|>--->--->---|
R   |x-x-x---x---x-x-|x---x---x-x---x-|x-x-x---x---x-x-|x-x-x-x-x---|
H   |---x-----X---x-x|-----X---x-----X|-x-x-x---X---x--|---X-x------|
S   |------o---------|--o---------o---|------o---------|o-------o---|
B   |o----o------o---|-o------o--o----|o----o------o--o|----o--o--o-|
Hf  |----------x-----|------x---------|----------x-----|------------|
    (1 + 2 + 3 + 4 + |1 + 2 + 3 + 4 + |1 + 2 + 3 + 4 + |1 + 2 + 3 + )
          4/4                                                3/4
>   |>----->----->---|-->----->--->---|>----->----->---|-->---------|
C   |x-----x-----x---|--x-----x---x---|x-----x-----x---|--x-----x---|
R   |--x-x---x-x---x-|x---x-x---x---x-|--x-x---x-x---x-|x---x-x-----|
H   |----------------|----------------|----------------|------------|
S   |o-----o-----o---|--o-----o---o---|o-----o-----o---|--o-----o---|
B   |o-o-o-o-o-o-o-o-|o-o-o-o-o-o-o-o-|o-o-o-o-o-o-o-o-|o-o-o-o-o-o-|
B2  |-o-o-o-o-o-o-o-o|-o-o-o-o-o-o-o-o|-o-o-o-o-o-o-o-o|-o-o-o-o-o-o|
    (1 + 2 + 3 + 4 + |1 + 2 + 3 + 4 + |1 + 2 + 3 + 4 + |1 + 2 + 3 + )
               4/4 
>   |>-------->--------------|--->-------->----->-----|
C   |x--------x--------x-----|---x--------x-----x-----|
T2  |----6-6------6-6-----6-6|-------6-6--------------|
T3  |---6-6------6-6-------6-|6-----6-6------6-----6--|
S   |o--------o--------o-----|---o--------o-----o-----|
B   |-------6--------6-------|-6--------6-----6-----6-|
B2  |--------6--------6------|--6--------6-----6-----6|
    (1tl+tl2tl+tl3tl+tl4tl+tl|1tl+tl2tl+tl3tl+tl4tl+tl)
                                     3/4
>   |>-------->--------------|------------------|
C   |x--------x--------c-----|1-----1-----1-----|
T2  |----6-6------6-6--------|------------------|
T3  |---6-6------6-6---------|------------------|
T4  |---------------------6--|---o-----6--------|
S   |o--------o--------------|o-----------o-----|
B   |-------6--------6-6---6-|---o--o---6----o--|
B2  |--------6--------6-----6|-----------6------|
    (1tl+tl2tl+tl3tl+tl4tl+tl|1tl+tl2tl+tl3tl+tl)
            4/4                                               3/4
C   |x----------------|----------------|-----------------|------s-----|
H   |-----------------|--------------X-|-----------------|------------|
T1  |------xx-xx---666|x-----xx-xx-----|------xx-xx---666|x-----------|
T2  |--------x--------|--x-----x-------|--x-----x--------|--x---------|
S   |----o-------o----|----o-------o---|----o-------o----|------o---o-|
B   |o---o---o---o----|o---o---o---o---|o----------------|o---o---o---|
    (1 + 2 + 3 + 4 +tl|1 + 2 + 3 + 4 + |1 + 2 + 3 + 4 +tl|1 + 2 + 3 + )
            4/4                                              3/4
C   |s----------------|----------------|-----------------|------2-----|
H   |-----------------|--------------X-|-----------------|------------|
T1  |------xx-xx---666|x-----xx-xx-----|------xx-xx---666|x-----------|
T2  |--------x--------|--x-----x-------|--x-----x--------|--x---o-----|
S   |----o-------o----|----o-------o---|----o-------o----|----------o-|
B   |o---o---o---o----|o---o---o---o---|o----------------|o---o---o---|
    (1 + 2 + 3 + 4 +tl|1 + 2 + 3 + 4 + |1 + 2 + 3 + 4 +tl|1 + 2 + 3 + )
           4/4                                               3/4
    |----------------------------Play 2x----------------------------|
C   |s---s---s---s---|s---s---s---s---|s---s---s---s---|s---s-2-----|
H   |---------------X|---------------X|---------------X|------------|
t2  |-------o-o------|-------o-o------|-------o-o------|------------|
T1  |------o---o---o-|--o---o---o---o-|--o---o---o---o-|--o---------|
S   |----o-------o---|----o-------o---|----o-------o---|------o---o-|
B   |o---o---o---o---|o---o---o---o---|o---o---o---o---|o---o---o---|
    (1 + 2 + 3 + 4 + |1 + 2 + 3 + 4 + |1 + 2 + 3 + 4 + |1 + 2 + 3 + )
           4/4                                               3/4
C   |x---------------|----------------|-----------------|------------|
H   |--x---x---x---x-|--x---x---x---X-|--X---xxx--x---x-|--x---x---X-|
S   |----o-------o---|----o-------o-o-|----o--------o---|----o---o---|
B   |o-------o-------|o-------o-------|o--------o-------|o-----------|
    (1 + 2 + 3 + 4 + |1 + 2 + 3 + 4 + |1 + 2 +tl3 + 4 + |1 + 2 + 3 + )
           4/4                                               3/4
C   |x---------------|----------------|----------------|------------|
H   |--X---x---x---x-|--x---xx-xx---X-|--X---x---x---x-|--x---x---X-|
S   |----o-------o---|----o-------o-o-|----o-------o---|----o---o---|
B   |o-------o-------|o-------o-------|o-------o-------|o-----------|
    (1 + 2 + 3 + 4 + |1 + 2 + 3 + 4 + |1 + 2 + 3 + 4 + |1 + 2 + 3 + )
           4/4                                               3/4
C   |x---------------|----------------|x---------------|------------|
R   |--x---x---x---x-|--x---x---x---x-|--x---x---x---x-|--x---x---x-|
S   |----o-------o---|----o-------o---|----o-------o---|----o---o---|
B   |o-----o-o-------|o-----o-o-------|o-----o-o-------|o-----------|
    (1 + 2 + 3 + 4 + |1 + 2 + 3 + 4 + |1 + 2 + 3 + 4 + |1 + 2 + 3 + )
           4/4                                                3/4
C   |x---------------|-----------------|x---------------|-------------|
C   |1---1---1---1---|1---1---1----1---|1---1---1---1---|1---1----1---|
R   |--x---x---x---x-|--x---x---x----x-|--x---x---x---x-|--x---x----x-|
S   |----o-------o---|----o--------o---|----o-------o---|----o----o---|
B   |o-------o-------|o-------o--6---o-|o-------o-------|o------6-----|
B2  |----------------|------------6----|----------------|--------6----|
    (1 + 2 + 3 + 4 + |1 + 2 + 3 +tl4 + |1 + 2 + 3 + 4 + |1 + 2 +tl3 + )
           4/4                                               3/4
C   |x-1---1---1---1-|--1---1---1---1-|x-1---1---------|--------------|
R   |x---x---x---x---|x---x---x---x---|----x---x-------|--------------|
T2  |----------------|----------------|----------------|o-oo-----6----|
T3  |----------------|----------------|----------------|----------66--|
S   |----o-------o---|----o-------o---|----o-----o-oo--|------o-6-----|
B   |o-------o-------|o-------o-o---o-|o-------o-----o-|----o-------6-|
B2  |----------------|---------o------|---------------o|-----o-------6|
    (1 + 2 + 3 + 4 + |1 + 2 + 3 + 4 + |1 + 2 + 3 + 4 + |1 + 2 + 3tl+tl)
           4/4                                                  3/4
C   |2---2-----2---2-|----2-----------|2----2-----1-1----|c-c----1-1----|
T2  |----------------|------------oo--|--6---------------|--------------|
S   |o---o-----o---o-|----o---oo------|o----o-----o-o----|o-o----o-o----|
F   |----------------|----------------|---------------6--|----6------6--|
B   |----------------|----------o---o-|---6------------6-|-----6------6-|
B2  |----------------|-----------o---o|----6------------6|------6------6|
    (1 + 2 + 3 + 4 + |1 + 2 + 3 + 4 + |1 +tl2 + 3 + 4 +tl|1 + 2tl+ 3 +tl)
           4/4                 5/4
C   |x----x-----x----x-|---c-----------------|
T2  |--6----------6----|6------------oo------|
T3  |------------------|-----------------oo--|
S   |o----o-----o----o-|---o-----oo----------|
B   |---6----------6---|-6-----o---o---o---o-|
B2  |----6----------6--|--6---------o---o---o|
    (1 +tl2 + 3 + 4tl+ |1tl+ 2 + 3 + 4 + 5 + )
          4/4
C   |1----1----1-----c-|c---------------------|
T2  |------------------|----------------6666--|
T3  |------------------|----------6666--------|
S   |o----o----o-----o-|o---------------------|
F   |--6----6----------|----6666--------------|
B   |---6----6-----o---|--o-----6-----6-----6-|
B2  |----6----6--------|---------6-----6-----6|
    (1 +tl2 +tl3 + 4 + |1 + 2tl+tl3tl+tl4tl+tl)
                                                             3/4
C   |x---x-----------|----------------|x---x-----------|------------|
R   |--------x---x---|x---x---x-------|--------x-------|------------|
H   |----------------|----------------|----------X-X---|X-X---X-X---|
S   |----o--o------o-|----o--o----oooo|----o--o------oo|----oo----oo|
B   |o---------o-----|--o-----o-o-----|o---------o-o---|o-o---o-o---|
B2  |----------------|---------o-o----|----------------|------------|
    (1 + 2 + 3 + 4 + |1 + 2 + 3 + 4 + |1 + 2 + 3 + 4 + |1 + 2 + 3 + )
           4/4                5/4
C   |x---x-----------|--------x-----------|
R   |--------x---x---|x---x---------------|
T2  |----------------|------------o-------|
T3  |----------------|------------o---o---|
T4  |----------------|----------------o---|
S   |----o--o-----o--|---o----o-----------|
B   |o---------o-o---|o-o---o-o-o-o-o-o-o-|
B2  |----------------|---------o-o-o-o-o-o|
    (1 + 2 + 3 + 4 + |1 + 2 + 3 + 4 + 5 + )
             4/4           2/4        5/8         2/4
C   |x----x----x-----c-|c----x-x-|---x-------|------------|
R   |--6----6----x-x---|--6------|6----------|------------|
T2  |------------------|---------|-----o-----|--3---------|
T3  |------------------|---------|-------o---|----3-3-----|
T4  |------------------|---------|---------o-|--------3-3-|
S   |o----o----o-----o-|o----o-o-|---o-------|3-----------|
F   |------------------|---------|-----------|------------|
B   |---6----6---------|---6-----|-3---------|------------|
B2  |----6----6--------|----6----|--3--------|------------|
    (1 +tl2 +tl3 + 4 + |1 +tl2 + |1tl2+3+4+5+|1 t l 2 t l )

C   |c---------------|----------------|----------------|----------------|
t2  |----o---o---o---|o---o---o---o---|o---o---o---o---|o---o---o---o---|
S   |----o-------o---|----o-------o---|----o-------o---|--o-o-----o-o---|
B   |o-o---o-o-o---o-|o-o---o-o-o---o-|o-o---o-o-o---o-|o-----o-o-----o-|
    (1 + 2 + 3 + 4 + |1 + 2 + 3 + 4 + |1 + 2 + 3 + 4 + |1 + 2 + 3 + 4 + )

C   |x---------------|
B   |o---------------|
    (1 + 2 + 3 + 4 + )

END
Enjoy the tab!
Dean Christesen
[email protected]


	  

No existe una video leccione para esta canción

request
Aumentar uno tonoAumentar uno tono
Aumentar uno semi-tonoAumentar uno semi-tono
Disminuir uno semi-tonoDisminuir uno semi-tono
Disminuir uno tonoDisminuir uno semi-tono
LosAcordes
Buscar
auto avanzar rasgueos aumentar disminuir cambiar color
losacordes exhibir acordes losacordes youTube video losacordes ocultar tabs losacordes ir hacia arriba losacordes