Dream Theater

Início > Dream Thea... > acordes

A Change of seasons Tablatura Batería

Dream Theater

Dificultad:Ningún gradoNingún grado

tuner correct add songbook print version text version salvar en e-mail
acordesukuleletablaturabaixobateríaarmónicaflautacavacopiano Guitar Pro
acordes

A Change of seasons

	  


Song: A CHANGE OF SEASONS
Artist: Dream Theater
Album: A Change of Seasons EP
Drummer: Mike Portnoy
Tabbed by: Dean Christesen ([email protected])
         & Jani Kuorikoski ([email protected])
Key:
P   |5  = Percussion/highest temple block
P   |w<<= Percussion/windchimes
P   |C  = Percussion/Disc crotales (I couldn't figure out the exact notes, so this is just the rythm)
C   |x  = crash strike
C   |#  = choke the cymbal
C   |s  = splash cymbal
C   |c  = china cymbal
C   |b  = bell cymbal
C   |1  = Max Stax Number 1 (Low Stax)
C   |2  = Max Stax Number 2 (Medium Stax)
Tm  |x  = tambourine
R   |x  = ride
R   |b  = bell of ride
H   |x  = closed hi-hat
H   |s  = partially open hi-hat
H   |X  = open hi-hat
H2  |x or s or X = 2nd hi-hat
t   |o  = highest octoban
t2..|o  = next octoban etc...
T1  |o  = Tom 1
T2  |o  = Tom 2
T3  |o  = Tom 3
T4  |o  = Tom 4
S   |o  = snare drum
S   |d  = double bounce (any drum)
S   |g  = ghost note (any drum)
F   |o  = Floor tom 1
F2  |o  = Floor tom 2 (gong bass)
B   |o  = Bass drum 1
B2  |o  = Bass drum 2
B   |d  = two consecutive 32nd notes (use both bass drums)
Hf  |x  = Hi-hat w/ foot

Measures with the *** mark have percussion fills, which were overdubbed later.
They cannot be played all at the same time, so you can choose which to play.

PART I: THE CRIMSON SUNRISE (0:01)
Tabbed by: Jani Kuorikoski

Intro

 4    |----repeat-23x---|
--- C  -----------------|
 4			 _____________ _____________ _____________
		      3 |1.3.	      |2.	    |4.		  |
C  -----------------|---|-------------|-xxxxxxxxx---|-------------|
H  -----------------| 4 |-------------|-------------|-XXXXXXXXX---|

Tempo=faster

      |-----------repeat-1x---------|
 7  FT -o-----o-----o-----o-----o---|
--- F2 -o-----o-----o-----o-----o---|
 4  B  -o---o---o---o---o---o---o---|

C  -----------------------------|-------------------------x---|
S  -f-----f-----f-----f-----f---|-f-----f-----f---f-------o---|
B  ---o-o---o-o---o-o---o-o---o-|---o-o---o-o---o---o-o-o-----|

    C  -x-------------------------x-----|   |-x-----------------------x---|
    H  -----X---X---X---X---X-----------|   |-----X---X---X---------------|
 8  T1 ---------------------------------| 7 |-----------------dd----------|
--- T2 ---------------------------------|---|-------------------d-dd------|
 4  T3 ---------------------------------| 4 |-----------------------d-----|
    S  ---------o---------o-----o-----o-|   |---------o---------------o---|
    B  -o-----o-------o-------o---o-----|   |-o-----o-------o----d---d--o-|

 8  C  -x-------------------------x-----| 7 |-x-----------------------x---|
--- H  -----X---X---X---X---X-----------|---|-----X---X---X---------------|
 4  S  ---------o---------o-----o-----o-| 4 |---------o-------f-------o---|
    B  -o-----o-------o-o-----o---o-----|   |-o-----o-------o---o-o-o-----|
			     _____________ _____________ _____________
			    |1.3.	  |2.		|4.	      |
 4  C  -x---x---x---x---| 3 |-x---x---x---|-x---x---c---|-x---x---x---|
--- S  -----o-------o---|---|-----o-------|-----o---o---|-----o---o---|
 4  B  -o-------o-------| 4 |-o-------o---|-o------d----|-o-----------|

    P  -----c---c-c---c---c---c-c---|------c---c-c---c---c---c-c--|
 7  C  -#-#-------------------------|-x-#-------------------------|
--- S  ---------------------------oo|-----------------------------|
 4  B  -o-o-------------------------|-o-o-------------------------|

(Play also the double notes on Hi-Hat closed)

C  -x---------------------------|-x---------------------------|
H  -----x-x-x-x-x-x-x-x-ddddxxxx|--xxxxxxx--xxxxxxxxxx------xx|
t2 -----------------------------|---------oo------------------|
t3 -----------------------------|---------------------ddddoo--|
B  -o---o---o---o---o---o---o---|-o---o---o---o---o---o---o---|

C  -x---------------------------|-----------------------------| ***
H  --xxxxxxxddddxxxxxxxxxxxxxxxX|-xxxxxxxxddddxxxxxxxxxxxxxxxx|
t1 -----------------------------(-ddo-------------------------)
t2 -----------------------------(-------ooo-------------------)
t3 -----------------------------(-------------ddo-------------)
t4 -----------------------------(-------------------ooo-------)
T1 -----------------------------(-------------------------oo--)
T2 -----------------------------(---------------------------oo)
B  -o---o---o---o---o---o---o---|-o---o---o---o---o---o---o---|

				|----------repeat-2x----------|
C  -x---------------------------|-----------------------------|
H  ---g---X---x---X-x---X---x---|-X-x---X---x---X-x---X---x---|
S  -----o-------o-----o-------o-|-----o-------o-----o-------o-|
B  -o--o----o--o--o--o----o--o--|-o--o----o--o--o--o----o--o--|
Hf ---------x------x------x-----|--x------x------x------x-----|

C  -x-------1--1--x-------------|-x-------1--1--s-------------|
H  -----X-------------X---X-X---|---X-x-xx--------g-X-X-X-----|
S  -----o----gg-gg----o-------oo|-----o----gg-gg----o-o---dddd|
B  -o--o--o-o--o--o-------o-o---|-o-o-----o--o--o-------o-----|

C  -x-------1--1--s---------x---|-x-------1--1--x-------------| ***
H  ---X-x-xx--------g-X-X-------|-----X-----------g-X-X-X-----|
t1 -----------------------------(-ooo-------------------------)
t2 -----------------------------(-------ddo-------------------)
t3 -----------------------------(-------------ooo-------------)
t4 -----------------------------(-------------------ddo-------)
S  -----o----gg-gg----o-o-----oo|-----o---o---------o-o---oooo|
B  -o-o-----o--o--o-------o-o---|-o-------o--o--o-------o-----|

(17/8)

C  -x---------------------------------|-x---------------------------------|
H  -----x-x-x-x-x-X-x-x-x-x-x-x-x-x-x-|-----x-x-x-x-x-X-x-x-x-x-x-x-x-x-x-|
S  ---------o---------o---------o-----|---------o---------o---o---------o-|
B  -o---o-o-------o-------o-o-------o-|-o---o-o-------o-----------o-o-----|

C  -x---------------------------------|-x---------------------------------|
H  ---g-x-x-x-x-x-X-x-x-x-x-x-x-x-x-x-|-----X---X-----X---x-x-x-x-x-x-x-x-|
S  ---------o---------o---------o-----|-----o-------f-----o---------o-----|
B  -o---o-o-------o-------o-o-------o-|-o-------o--d--o-------o-o-------o-|
Hf -----------------------------------|-----------------x-----------------|

C  -x---------------------------------|-x---------------------------------|
H  -----X---X-----X---x-x-x-x-x---x-x-|-----X---X-----X---x-x-x-x-x-x-x-x-|
S  -----o-------o-----o---o---------o-|-----o-------o-----o---------o-----|
B  -o-------o--d--o-----------o-o-----|-o-------o--d--o-------o-o-------o-|
Hf -----------------x-----------------|-----------------x-----------------|

   |-------------repeat-2x------------|
C  -x---------------------------------|
S  -o---------------------------------|
F  -----o---o-----o---o---o-----o---o-|
F2 ---o-o-o-o-o-o-o-o-o-o-o-o-o-o-o-o-|
B  -o-o-o-o-o-o-o-o-o-o-o-o-o-o-o-o-o-|

  |--------------repeat-1x------------|
C  -c---c---c---c---c---c---c---c---c-|-c---c---c---c---c---c---c---c---c-|
S  -o---o---o---o---o---o---o---o---o-|-o---o---o---o---o---o---o---o---o-|
B  -oooooooooooooooooooooooooooooooooo|-oooooooooooooooooooooooooooooooo--|

  |--------------repeat-1x------------|
C  -x-------------x-------1-2-------x-|-x-------------x-------1-2-------x-|
H  -----X---X---------X-------g-X-----|-----X---X---------X---------X-----|
S  -----o-----oooo----o---------o-----|-----o-----oooo----o---------o-----|
B  -o-------o-----o-------o-o-------o-|-o-------o-----o-------o-o-------o-|

    C  -x-------x-------x-------x-------x-----b---|
21  H  -----X-------X-------X-------X-------------|
--- S  -------o-------o-------o-------o-------o---|
 8  B  -o---o---o---o---o---o---o---o---o---------|
    Hf -------x-------x-------x-------x-----------|

    H  ------------------|   |-X---------------|
17  T1 --o---------------| 4 |-----------------|
--- S  -o-o--o-oo-o-o--o-|---|-o-----ooo-----oo|
16  B  ----oo-o--o-o-oo-o| 4 |-----------------|
    Hf ------------------|   |--x----------x---|

PART II: INNOCENCE (3:51)
Tabbed by: Jani Kuorikoski
                     _________________ _________________
		    |1.		      |2.		|
C  -x---------------|-----------------|-----------------|
H  -----X---X---X---|-X---X---X---X---|-X---X-----------|
T1 -----------------|-----------------|-------------o---|
S  -----o-------o---|-----o-------o-oo|-----o----doo-doo|
B  -o-------o-------|-o-------o--d----|-o-------o-------|

C  -x---------------|-x---------c---c-|-x---------------|-x---------------|
R  ---x-x-x-x-x-x-x-|---x-x-x-x---x---|---x-x-x-x-x-x-x-|---x-x-x-x-x-x---|
S  -----o---o---o---|-o---o---o---o---|-o---o---o---o---|-o---o---o---oooo|
B  -oooooooooooooooo|-oooooooooooooooo|-oooooooooooooooo|-oooooooooooo----|

C  -x---c---c---c---|-c---c---c---c---|-x---c---x---c---|
T1 -----------------|-----------------|-----------------|
T2 -----------------|-----------------|-----------------|
T3 -----------------|-----------------|-----------------|
T4 -----------------|-----------------|-----------------|
S  -----o--o----o---|-----o--o----o---|-----o-------o---|
B  -oooo------o---o-|-oooo------o---o-|-o--o--o-o--o--o-|

C  -x----------------------------x-|
T1 -----------oo-o-----------------|
T2 -----------------oo-o-----------|
T3 -----------------------oo-o-----|
T4 ----------------------------o---|
S  -----ttto-----------------------|
B  -o----------------------------o-|
  ( 1   +tl2   +   3   +   4   +   )

C  -x---c---c---c---|-c---c---c---c---|-x---c---x---c---|-----------------|
H  -----------------|-----------------|-----------------|---------------X-|
T1 -----------------|-----------------|-----------------|---o-------------|
T2 -----------------|-----------------|-----------------|-------o---------|
T3 -----------------|-----------------|-----------------|---------o-------|
T4 -----------------|-----------------|-----------------|-----------o-----|
S  -----o--o----o---|-----o--o----o---|-----o-------o--o|-o-----------oo--|
B  -oooo------o---o-|-oooo------oo--o-|-o--o--o-o-------|-----------------|


1st Verse

15  C  -------------------------------|-------------------------------|
--- H  -X---x-xxx-xxx-xxx-xxx-x-x-x-x-|-x-xxx-xxx-xxx-x-x-xxx-xxx-x-X-|
 8  S  -----o-----------o-------o-----|-----o-----------o-------o-----|
    B  -o-------o---o-------o-------o-|-o-------o---o-------o-------o-|

C  -------------------------------|-------------------------------|
H  -X---x-xxx-xxx-xxx-xxx-xxx-xxx-|-x-xxx-xxx-xxx-x-x-xxx-xxx-x-X-|
S  -----o-----------o-------o-----|-----o-----------o-------o-----|
B  -o-------o---o-------o-------o-|-o-------o---o-------o-------o-|


Pre-Chorus

    C  -x-----------x-----------------|-x-----------x-----------------1-|
15  R  ---x-x-x-x----xx-xxx-bxx-xxx-b-|-b-b-b-b-b-----x-x-x---------bx--|
--- T1 -------------------------------|----------------------tt---------|
 8  T2 -----------oo------------------|-----------oo-----------ttt------|
    S  -----o-----------o-------o-----|-----o-----------o---t-----oo----|
    B  -o---o---o---o---o---o---o---o-|-o-------o---o-----o-------------|
    Hf -x-----------------------------|---------------------------------|
				      ( 1 + 2 + 3 + 4 + 5 + 6tl+tl7 + 8 )

    C  -x-------c---x-----------------|	  |-x-----------x-----------x---|
15  R  ---x-x-x------xx-bbx-xxx-xbb-b-| 7 |---x-x-x-x-----x-x-x---------|
--- T2 -----------oo------------------|---|-----------oo----------------|
 8  S  -----o-----------o-------o-----| 4 |-----o-----------o---f---o---|
    B  -o---o---o---o---o---o---o---o-|   |-o---o---o---o------o--oo----|


Chorus 1

 4  C  -x---c---c---c---|-c---c---c---c---|-x---c---c---c---|
--- S  -----o--o----o---|-----o--o----o---|-----o-------o---|
 4  B  -oooo------o---o-|-oooo------o---o-|-o--o--o-o--o--o-|
       ___________________ ___________________
      |1.		  |2.		      |
    C  -x-----x-----x-----|-x-----x-----x-----|
    T1 -------------------|---o---------------|
 9  T2 -------------------|----oo-------------|
--- T3 -------------------|------o--oo--------|
 8  T4 -------------------|-----------oo------|
    S  ---ooo---ooo---oooo|---------------oooo|
    B  -o-----o-----o-----|-o-----o-----o-----|


Interlude

C  -x---------------|--------------x-x|-x---c-----------|-----------------|
H  -----X---X---X---|-X---X---X-------|---------X---X---|-X---X---X---X---|
S  -----o-------o---|-----o----f-oo---|-----o-------o---|-----o-------o-oo|
B  -o-------o-------|-o-------o----o-o|-o-------o-------|-o-------o--d----|


2nd Verse
				      |------------repeat-2x----------|
15  C  -x-----------------------------|-s-----------------------------|
--- H  ---g-x-x-x-x-x-x-x-x-x-x-x-x-X-|---x-x-x-x-x-x-x-x-x-x-x-x-x-X-|
 8  S  -------o-----------o-------o-o-|-------o-----------o-------o-o-|
    B  -o---o-----o-o---o-----o-o-----|-o---o-----o-o---o-----o-o-----|


Bridge

    C  -x-----------------------------|-x---c-------------------------|
15  R  ---x-x-xxb-bbb-bbb-bbb-bbb-----|---x---xxb-bbbbx-b-bbbbb-b-----|
--- T2 ---------------------------o-o-|---------------------------o-o-|
 8  S  -----o-------o-------o---------|-----o-------o-------o---------|
    B  -o---o---o---o---o---o---o-----|-o--d----o---o---o---o---o-----|

C  -x---x-------------------------|-x---c-------------------------|
R  ---x---xxx-xxx-xxx-xxx-xxx-----|---x-----b-xxxxb-b-xxxbb-b-----|
T2 ---------------------------o-o-|---------------------------o-o-|
S  -----o-------o-------o---------|-----o-------o-------o---------|
B  -o--d----o---o---o---o---o-----|-o--d----o---o---o---o---o-----|


Interlude

      |------------repeat-2x----------|
    C  -x---c-----x-----c---------1-1-|-x---c-----x-------------------|
15  H  ---x---x-x---x-x---x---xx------|---x---x-x---x-----------------|
--- T1 -------------------------------|-----------------o--o--o-------|
 8  T2 -------------------------------|-------------------------ooo-o-|
    S  -----o-----o-----o---oo--oo----|-----o-----o---oo-go-oo-g--o---|
    B  -o--d--o-o---o--d--o-------o-o-|-o--d--o-o---o-----------------|


Pre-Chorus

    C  -x-----------x-----------------|-x-----------x-----------------s-|
15  R  ---b-b-b-b----bb-bbb-bbb-bbb-b-|-b-b-b-b-b-----x-x-b---------bx--|
--- T1 -------------------------------|----------------------tt---------|
 8  T2 -------------------------------|-----------oo-----------ttt------|
    S  -----o-----------o-------o-----|-----o-----------o---o-----oo----|
    B  -o-------o---o---o---o---o---o-|-o---o---o---o-----o-------------|
				      ( 1 + 2 + 3 + 4 + 5 + 6tl+tl7 + 8 )

    C  -x-----------x-----------------|	  |-x-----------x-----------x---|
15  R  ---x-x-x-x----xb-bbb-bbb-bbb-b-| 7 |-b-b-b-b-b-----b-b-b---------|
--- T2 -----------oo------------------|---|-----------oo----------------|
 8  S  -----o-----------o-------o-----| 4 |-----o-----------o---f---o---|
    B  -o---o---o---o---o---o---o---o-|   |-o-------o---o-----oo--oo----|


Chorus 2

C  -x---c---c---c---|-c---c---c---c---|-x---c---x---c---|
S  -----o--o----o---|-----o--o----o---|-----o-------o---|
B  -oooo------o---o-|-oooo------o---o-|-o--o--o-o--o---o|

    C  -x-----------x-----------x-----------|
 9  T1 -----o-o-o-o-------------------------|
--- T2 -----------------o-o-o-o-------------|
 8  T3 -----------------------------o-o-o-o-|
    S  -o-----------o-----------o-----------|
    B  ------------o-----------o------------|
      ( 1   +   2   +   3   +   4   +   5   )
			 _________________     ____________________________
			|1.		  |   |2.			   |
    C  -x---c---c---c---|-x--------------x|   |-x--------x--------x--------|
    H  -----------------|----XX---X---X---|   |----------------------------|
 4  T1 -----------------|-----------------| 9 |----ttt---------------------|
--- T2 -----------------|-----------------|---|-------ttt---ttt------------|
 4  T3 -----------------|-----------------| 8 |----------------ttt---ttt---|
    T4 -----------------|-----------------|   |-------------------------ttt|
    S  -----o-------o---|--doo-doo-doo-do-|   |-o--------o--------o--------|
    B  -o--o--o-o--o--o-|-o---o---o---o--o|   |------d--d--d--d--d--d--d--d|
					      ( 1tl+tl2tl+tl3tl+tl4tl+tl5tl)

Outro

 4  C  -x---------------|-x---------------|
--- H  -----X-------X---|-----X-------X---|
 4  S  -o---------------|-----------------|
    B  -----------------|-o---------------|

"Carpe Diem/Sieze the day..."
PART III: CARPE DIEM (7:16)
Tabbed by: Dean Christesen
Time signature in intro: 6/4

"I'll always remember/the chill of November..."
Crotales in the little bridge with the man talking.
Windchimes a few measures before drums come in.
"...We can hope for the future/but there may not be one."
8:46        19/16       |------Play 7x------|
H   |-xxx-xx-x-xxx-xx-xx|-xxx-xx-x-xxx-xx-xx|
S   |----o--------o--o--|----o--------o--o--|
B   |o------o-o---------|o------o-o---------|
Hf  |-------------------|-------------------|
    (1234567890123456789|1234567890123456789|
9:07                    |------Play 3x------|
C   |x------------------|-------------------|x------------------|
H   |-ddx-xx-x-xxx-xx-xx|-xxx-xx-x-xxx-xx-xx|-ddx-xx-x-xxx-xx-xX|
S   |----o--------o--o--|----o--------o--o--|----o--------o--o--|
B   |o------o-o---------|o------o-o---------|o------o-o---------|
Hf  |-------------------|-------------------|-------------------|
    (1234567890123456789|1234567890123456789|1234567890123456789)
9:20
C   |-------------------|-------------------|-------------------|
H   |-xxx-xx-x-xxx-xx-xX|-xxx-xx-x-xxx-xx-xX|-xxx-xx-x-xxx-xx---|
S   |----o--------o--o--|----o--------o--o--|----o--------o--o-d|
B   |o------o-o---------|o------o-o---------|o------o-o---------|
Hf  |x------------------|x------------------|x------------------|
    (1234567890123456789|1234567890123456789|1234567890123456789)

9:27   In this section, you may not be able to hear the d's, but they're there.     
            5/4                               |-------Play 5x------|
S   |oooooooo--o---oooo-d|oooooooo--o---oooo-d|oooooooo--o---oooo-d|
B   |g---g---g---g---g---|g---g---g---g---g---|g---g---g---g---g---|
    (1 + 2 + 3 + 4 + 5 + |1 + 2 + 3 + 4 + 5 + |1 + 2 + 3 + 4 + 5 + )
           4/4
S   |oooooooo--------|
B   |g---g-----------|
    (1 + 2 + 3 + 4 + )

*Fermata on four.

PART IV: The Darkest of Winters (9:48)
Tabbed by: Jani Kuorikoski

Intro
			    |-------repeat-4x-----|
    C  -x-------------------|---------------------|-------------s-------|
    Tm ---x-x-x-x-x-x---x---|-x-x-x-x-x-x-x---x---|-x-x-x-x-x-x---------|
    H  --g-x-x-x-x-x-x---X--|--x-x-x-x-x-x-x---X--|--x-x-x-x-x----------|
 5  T2 ---------------------|---------------------|---------------oo----|
--- T3 ---------------------|---------------------|-----------------oo--|
 4  T4 ---------------------|---------------------|-------------------oo|
    S  ----o-----o----oo--oo|----o-----o----oo--oo|----o-----o--o-------|
    B  -o-o---o-o---o---o---|-o-o---o-o---o---o---|-o-o---o-o--o--------|
    Hf -------------------x-|-------------------x-|---------------------|

S  -oooooooo--o---o---o-|
Hf -x---x---x---x---x---|

  |------repeat-3x------|		      |------repeat-1x------|
C  -x-------------------|-x---1---1---1---1---|-1---1---1---1---1---|
R  -----b---b---b---b---|---------------------|---------------------|
S  -----o-----o-------oo|-----o-----o------ooo|-----o-----o------ooo|
B  -o--o---o------o--o--|-o--o---o------o-----|-o--o---o------o-----|

    C  -1---1---1---1---|   |-x-----x-----x-----------------|
 4  T3 -----------------| 5 |-----------------------t-------|
--- T4 -----------------|---|-----------------------t-------|
 4  S  -----o-----o-----| 4 |---t-t---t-t---t-t-f-------t-t-|
    B  -o--o---o--------|   |-t-----t-----t-------t---t-----|
			    ( 1 t l 2 t l 3 t l 4 t l 5 t l )

		    |--repeat-2x--|
 4  C  -x-----------|-------------|-----------------|
--- H  --x--x--x--x-|--x--x--x--x-|-----------------|
 4  S  ----t-----t--|----t-----t--|-f---------------|
    B  -t-t--tt-t--t|-t-t--tt-t--t|-----------------|
      ( 1tl2tl3tl4tl| 1tl2tl3tl4tl| 1 + 2 + 3 + 4 + )
		     _________________ _________________
		    |1.2.4.	      |3.		|
C  -x---------------|-----------------|-----------------|
R  -b---b---b---b---|-b---b---b---b---|-b---b---b---b---|
S  ---------o-------|---o-----o-------|---o-----o-------|
B  -o---o-o-----o-o-|-----o-o-----o-o-|-------o-----o-o-|


Keyboard Solo
				      |--------------repeat-1x------------|
C  ---------x-------|-----------------|-x---------------|-----------------|
H  -------------X---|-X---X---X---X---|-----X---X---X---|-X---X---X---X---|
S  -f-------o-------|-o-------o-------|-o-------o-------|-o-------o-------|
B  ---o-o-o-------o-|-------o-----o-o-|-------o-------o-|---o---o-----o-oo|

C  -x---------------|-----------------|
H  -----X---X---X---|-----------------|
T2 -----------------|---f-------------|
T3 -----------------|-------f---------|
T4 -----------------|-----------f-----|
S  -o-------o-----f-|-----------------|
B  -------o---------|-----------------|
Hf -----------------|-x---x---x---x---|


Interlude

C  -x---------------|-----------------|-x---------------|-----------------|
R  -b---b---b---b---|-b---b---b---b---|-b---b---b---b---|-b---b---b---b---|
S  ---------o-------|---o-----o-------|-----o-------o---|-----o-------o---|
B  -o---o-o-----o-o-|-----o-o-----o-o-|-o-o-------oo--o-|---o-----o-o---o-|

C  -x---------------|---------------x-|-x---------------|-----------------|
R  -b---b---b---b---|-----------------|-b---b---b---b---|-----------------|
S  -----o-------o-f-|-----f-------f---|---------o-----o-|-o-----o-o-----o-|
B  -o-o---o-o-o-----|---------oooo--o-|-o---o-o---o-o---|---o-o-----o-o---|
Hf -----------------|-x---x-----------|-----------------|-----------------|


1st Guitar Solo

C  ---------x-------|-----------------|-x---------------|-----------------|
H  -------------X---|-X---X---X---X---|-----X---X---X---|-X---X---X---X---|
S  -o-------o-------|-o-------o-------|-o-------o-------|-o-------o-------|
B  ---o-o-o-------o-|-------o-------o-|-------o-----o-o-|---o---o-------oo|

C  -x---------------|-----------------|-x---------------|-----------#-----|
H  -----X---X---X---|-X---X---X---X---|-----X---X---X---|-----------------|
T2 -----------------|-----------------|-----------------|---f-------------|
T3 -----------------|-----------------|-----------------|-------f---------|
S  -o-------o-------|-o-------o-------|-o-------o-----f-|-----------------|
B  -----o-o-----o-o-|---o---o-----g-oo|-----o-o-----o---|-----------o-o---|
Hf -----------------|-----------------|-----------------|-x---x---x-------|


Interlude (8/4)

C  -x---1---------------1-------1---|-----1---------------1-------1---|
R  ---------x---x---x-------x-------|-x-------b---b---x-------x-------|
S  -----o---------o-----o-------o---|-----o---------o-----o-------o---|
B  -o--o----o---o------o----o-oo----|-o-oo----o---o------o----o-oo----|

C  -----1---------------1-------1---|-----1---------------1-----------|
R  -x-------x---b---x-------b-------|-b-------b---b---x-------x-------|
S  -----o---------o-----o-------o---|-----o---------o-----o------oo-oo|
B  -o-oo----o---o------o----o-oo----|-o-oo----o---o------o----o-------|

				    |------------repeat-1x------------|
C  -x-------------------------------|---------------------------------|
H  ---X-x-x-x-x-x-x-x-X-x-x-x-x-x-X-|-x-X-x-x-x-x-x-x-x-X-x-x-x-x-x-X-|
S  -----o-------o---o-------o---o---|-----o-------o---o-------o---o---|
B  -o-o-----o-o---------o-o---------|-o-o-----o-o---------o-o---------|

H  ---X---X---X---X---X---X---------|
S  -----o-------o-------o---oooooooo|
FT -----------------------o---------|
B  -o-o-----o-o-----o-----o---------|
Hf -x---x---x---x---x---x-----------|

C  -x-------------------------------|---------------------------------|
H  -----X---X---X---X---X---X---X---|-X---X---X---X---X---X---X---X---|
S  -----o----g--o-------o-------o---|-----o----g--o-------o-------o---|
B  -o-o-----o-o-----o-o---o---o-----|-o-o-----o-o-----o-o---o---o---o-|

C  -x-------------------------------|---------------------------------|
H  -------X-----X-----X-----X-----X-|-----X-----X-----X-------X-------|
S  -------o-----------o-----------o-|-----------o-------o-o-----o-o---|
B  -o---o-----o-o---o-----o-o---o---|---o-o---o---------------o-----o-|
				     _________________________________
				    |1.				      |
C  -x---x---x---x---x---x---x---x---|-c---x---x---x---------c---x---x-|
S  ---------o-------o-------o-------|-o-------o-------oo--oo----------|
B  -o---o-o-----o-o-----o-o---o---oo|-----o-o-----o-o---oo--o---o---o-|
   _________________________________
  |2.				    |
C  -x---x---x---x-------------------|
T2 ---------------------oo----------|
T3 -------------------------oo------|
T4 ---------------------------------|
S  -o-------o-------oo----------oooo|
B  -----o-o-----o-----oo--oo--oo----|


2nd Guitar Solo			     _________________________________
				    |1.				      |
C  -x-------------------------------|-------------------------------x-|
R  -----b---b---b---b---b---b---b---|-b---b---b---b---b---b---b---b---|
H  --------------------------------X|---------------------------------|
S  -----o-------o-------o-------o---|-----o-------o-------o-------o---|
B  -o--o--o-o--o--o-o--o--o-o--o----|-o--o--o-o--o--o-o--o--o-o--d--o-|
Hf ---------------------------------|-x-------------------------------|
   _________________________________
  |2.				    |
C  ---------------------------------|
R  -b---b---b---b---b---b---b---b---|
H  ---------------------------------|
S  -----o-------o-------o-------o---|
B  -o--o--o-o--o--o-o--o--o-o--o--o-|
Hf -x-------------------------------|


Interlude
		    |--repeat-2x--|
    C  -x-----------|-------------|   |-----------------------------------|
 3  H  -----X---X---|-X---X---X---| 6 |-------------------------X---------|
--- T1 -------------|-------------|---|---t-t-------------t---------------|
 4  S  -o---o---o---|-o---o---o---| 4 |-t---------t-----t-------t---------|
    B  -oooooooooooo|-oooooooooooo|   |-------t-t---t-t-----t-tt---------o|
    Hf -------------|-------------|   |----------------------------x------|
				      ( 1 t l 2 t l 3 t l 4 t l 5 t l 6 + )
(4/4)				       ___________________________________
		    |----repeat-1x----|1.				  |
C  -x---------------|-----------------|-----------------|-----------------|
H  -----X---X---X---|-X---X---X---X---|-----------------|-----------------|
T1 -----------------|-----------------|-oooooo----------|-----------------|
T2 -----------------|-----------------|---------oooooo--|-----------------|
T3 -----------------|-----------------|-----------------|-------oooo------|
S  -o---o---o---o---|-o---o---o---o---|-----------------|-oooo--------oo--|
B  -oooooooooooooooo|-oooooooooooooooo|-------oo------oo|-----oo----oo----|
       _________________________________________
      |2.					|
    C  -----------------1---------------s---b---|
    Tm -----------------------x-----------------|
10  R  -----------------------------------------|
--- T1 --do-do-do-do--------------oo------------|
 4  S  -o--o--o--o--oo-----o-----o-----o--------|
    B  -----------------o-----------ooo-o-------|

      |--------repeat-1x--------|
    C  -x-----------------------|-x-----------x-----------|
    H  -----X---X---X---X---X---|-------------------------|
    T1 -------------------------|----ooo------------------|
 6  T2 -------------------------|-------oo----------------|
--- T3 -------------------------|---------oo-----ooo------|
 4  T4 -------------------------|-----------o-------oo----|
    S  -o---o---o---o---o---o---|-------------------------|
    FT -------------------------|---------------------oo--|
    F2 -------------------------|-----------------------oo|
    B  -oooooooooooooooooooooooo|-o----------oo-----------|


Outro (4/4)	     _________________ _________________ _________________
		    |1.3.7.	      |2.		|4.		  |
C  -x---------------|-----------------|-----------------|-----------x-x---|
R  -----x---x---x---|-x---x---x-------|-x---x---x-------|-x---x-----------|
T3 -----------------|-------------o-o-|-----------------|-----------------|
S  ---------o-------|---------o-------|---------o-------|---------f-------|
B  -o-------------o-|-o---o-----------|-o---o------oo---|-o-----o---o-o---|
   _________________ _________________ _________________
  |5.		    |6.		      |8.	        |
C  -----------------|----------c--c---|-x---------------|
R  -----------------|-b--b--bb--------|-----------------|
T1 -oo--------------|-----------------|---o-o-----------|
T2 ---o-o-o-oo------|-----------------|---------o-g-----|
T3 -------------ooo-|-----------------|-------------o-g-|
S  -----------------|------g--o-------|-o---------------|
B  -----------o-----|-o--o--oo-o--o---|-----------------|

PART V: ANOTHER WORLD (13:28)
Tabbed by: Dean Christesen

"So far or so it seems/All is lost, with nothing fulfilled..."

Tempo: Largo         |----Play 7x-----|----Play 8x-----|----Play 7x-----|
C   |x---------------|----------------|----------------|----------------|
Tm  |----------------|K E Y B O A R D-|----------------|----x-------x---|
R   |----------------|----------------|----B A S S-----|x---------------|
H   |----------------|-& V O C A L S--|----------------|----x---x---x---|
B   |o---------------|----------------|----------------|----------------|
    (1 + 2 + 3 + 4 + |1 + 2 + 3 + 4 + |1 + 2 + 3 + 4 + |1 + 2 + 3 + 4 + |

Tm  |----x-----------|
R   |x---------------|
H   |----x-----------|
T1  |-------oo-------|
T2  |----------o-----|
T3  |-------------oo-|
Hf  |-------xx-x-x-x-|
    (1 + 2 + 3 + 4 + )

This can be played as a tight ride or a hi-hat played with the tip of the
stick.
14:46                |----Play 6x-----|        Crescendo
C   |x---------------|----------------|----------------|
H   |--x-x-x-x-x-x-x-|x-x-x-x-x-x-x-x-|x-x-x-x---------|
S   |----o-------o---|----o-------o---|----o---o-oooooo|
F   |----------------|----------------|--------o-oooooo|
B   |o------go-o-----|o------go-o-----|o-------o-oooooo|
    (1 + 2 + 3 + 4 + |1 + 2 + 3 + 4 + |1 + 2 + 3 + 4 + )

15:12
C   |##--------------|----------------|#---------------|----------------|
S   |--------------oo|oo--------------|--------------oo|o-----------F---|
F   |--------------oo|oo--------------|--------------oo|o---------------|
B   |oo------------oo|oo--------------|o-------------oo|o------------oo-|
    (1 + 2 + 3 + 4 + |1 + 2 + 3 + 4 + |1 + 2 + 3 + 4 + |1 + 2 + 3 + 4 + )

15:25
C   |##--------------|--------------b-|c---------------|
H   |----------------|----------------|--------------X-|
S   |--------------oo|oo--------------|o---------------|
F   |--------------oo|oo--------------|----------------|
B   |oo------------oo|oo--------------|----------------|
    (1 + 2 + 3 + 4 + |1 + 2 + 3 + 4 + |1 + 2 + 3 + 4 + )
       Crescendo
C   |s-------------s-----|
T1  |----------F---------|
T2  |------------F---F---|
T3  |------------------F-|
S   |OoooooooF-----o-----|
F   |-ooooooo------------|
B   |Oooooooo-d-d-d-d-d-d|
    (1 + 2 + 3 t l 4 t l )

15:39
C   |x---------------|x----------------|x---------------|x------------xx-|
R   |----x-x-x-x-x---|--x-x-x-x-x-x----|--x-x-x-x-x-x---|--x-x-x-x-x-----|
T3  |--------------oo|-----------------|----------------|----------------|
T4  |----------------|-----------------|--------------oo|----------------|
S   |----o-------o---|----o-------o----|----o-------o---|----o-------F---|
B   |o------oo-o-----|o------go-o---t--|o------go-o-----|o------go-oo-oo-|
B2  |----------------|---------------t-|----------------|----------------|
    (1 + 2 + 3 + 4 + |1 + 2 + 3 + 4tl+ |1 + 2 + 3 + 4 + |1 + 2 + 3 + 4 + )

15:53
C   |x---------------|x--------------2-2--|
R   |--x-x-x-x-x-x---|--x-x---b-b-bb------|
T3  |--------------oo|--------------------|
S   |----o-------o---|----o---------t-----|
B   |o------oo-o-----|o------go-o-oo-t-t--|
    (1 + 2 + 3 + 4 + |1 + 2 + 3 t l 4tl+tl)

15:58
C   |x---------------|x-----------c-c-|
R   |--x-x-x-x-x-x-x-|--x-x-x---------|
S   |----o-------o---|----o---F---o-o-|
B   |o------oo-o-----|o------o-ooo----|
    (1 + 2 + 3 + 4 + |1 + 2 + 3 + 4 + )

16:04                |----Play 2x-----|
C   |x---------------|----------------|--------------------c---------x-|
H   |--X---X-X-X---X-|X-X---X-X-X---X-|X---X-------X-------------------|
H2  |----X-------X---|----X-------X---|--------X-----------------------|
S   |----o-------o---|----o-------o---|--------o-------oo--o---oo--o---|
B   |o-oo--ooo-oo--oo|o-oo--ooo-oo--oo|o---o-o-----o-o---o---o---o---o-|
B2  |----------------|----------------|-------------------o-------o----|
    (1 + 2 + 3 + 4 + |1 + 2 + 3 + 4 + |1   +   2   +   3   +   4   +   )

16:17
C   |x----------------|x----------------|
H   |--X---X-X-X------|--X---X-X-X------|
H2  |----X-------X----|----X-------X----|
T2  |-----------------|--------------t--|
T3  |-----------------|---------------tt|
S   |----o-------o-Ftt|----o-------o----|
B   |o-oo--ooo-oo-----|o-oo--ooo-oo-----|
    (1 + 2 + 3 + 4 +tl|1 + 2 + 3 + 4 +tl)

C   |x-------------------------------|x-------------------------------|
H   |----X-------X---X---X-------X---|----X------X--------------------|
H2  |--------X---------------X-------|--------X-----------------------|
T1  |--------------------------------|--------------------oo----------|
T2  |--------------------------------|------------------------oo------|
T3  |--------------------------------|----------------------------oo--|
S   |--------o---------------o-------|--------o-------oo--------------|
B   |o---o-o-----o---o---o-o-----o-g-|o---o-o-----o-o---o---o---o---o-|
B2  |--------------------------------|-------------------o---o---o---o|
    (1   +   2   +   3   +   4   +   |1   +   2   +   3   +   4   +   )

16:31
C   |x---------------|x-----------x-x-|x---------------|x-----------x-x-|
H   |--X-X-X-X-X-X---|--X-X-X-X-X-----|--X-X-X-X-X-X---|--X-X-X-X-X-----|
T3  |--------------oo|----------------|----------------|----------------|
T4  |----------------|----------------|--------------oo|----------------|
S   |----o-------o---|----o--o----o---|----o-------o---|----o--o----o-o-|
B   |o------oo-oo----|o--o-----oo---o-|o------oo-oo----|o--o-------d-o-o|
    (1 + 2 + 3 + 4 + |1 + 2 + 3 + 4 + |1 + 2 + 3 + 4 + |1 + 2 + 3 + 4 + )

16:44
C   |x---------------|x--------------x|x--------------x|
H   |--X-X-X-X-X-X---|--X-X-X-X-X-----|--X-X-X-X-X-X-X-|
T2  |----------------|-------------oo-|----------------|
T3  |--------------oo|----------------|----------------|
S   |----o-------o---|----o-------o---|----o-------o---|
B   |o------oo-o-----|o------oo-o----o|o------oo--o---o|
    (1 + 2 + 3 + 4 + |1 + 2 + 3 + 4 + |1 + 2 + 3 + 4 + )
                       11/8
C   |x---------------x---------------------------|
H   |----X---X---X-------------------------------|
T1  |------------------ooo-oo--------------------|
T2  |------------------------ooo-----------------|
T3  |----------------------------ooo-------------|
S   |--------o-----------------------------------|
F   |--------------------------------o-o-o-o-----|
F2  |--------------------------------o-o-o-o-----|
B   |o-----------o---o---------------o-o-o-o-----|
    (1 + 2 + 3 + 4 + 5 + 6 + 7 + 8 + 9 + 0 + 1 + )

PART VI: THE INEVITABLE SUMMER (16:59)
Tabbed by: Dean Christesen

16:59     7/8                            Play flams on highest temple
P   |--------------|--------------|--------------|----w<<<<<<---|
P   |--------------|--C-CC-C-C-CC-|--------------|-------5F-55F5|
C   |##------------|x-------------|##------------|x-------------|
B   |oo------------|o-------------|oo------------|o-------------|
    (1+2+3+4+5+6+7+|1+2+3+4+5+6+7+|1+2+3+4+5+6+7+|1+2+3+4+5+6+7+)
17:10
P   |--------------|--C-CC-C-C-CC-|--------------|?-------------|
C   |##------------|x-------------|##------------|x-------------|
S   |--------------|--------------|--------------|-----------OO-|
B   |oo------------|o-------------|oo------------|o-------------|
    (1+2+3+4+5+6+7+|1+2+3+4+5+6+7+|1+2+3+4+5+6+7+|1+2+3+4+5+6+7+)

17:21              |----Play 2x---|
C   |x-------------|--------------|----------------------------|
H   |--xxx-x-xxX-x-|x-xxx-x-xxX-x-|x---x-x-x---x---x-----------|
T1  |--------------|--------------|--------------------ooo-----|
S   |----o-------o-|----o-------o-|--------o---------o-----o-o-|
B   |oo----oo--o---|oo----oo--o---|o-o---------o-o-------------|
Hf  |------------x-|------------x-|----------------------------|
    (1+2+3+4+5+6+7+|1+2+3+4+5+6+7+|1 + 2 + 3 + 4 + 5 + 6 + 7 + )
17:33
C   |xc------------|--------------|2-b-b-b-b-b-b-|b-b-b-b-b-b-----|
H   |--Xxx-x-xxX-x-|x-xxx-x-x-X---|--------------|----------------|
T   |--------------|--------------|--------------|----------------|
S   |----o-------o-|----o----o--F-|----o----o---o|----o----o--F-oo|
B   |oo----oo--o---|oo----oo---o-o|o--o---o---o--|o-oo---o---o----|
Hf  |---x----------|--------------|x-------------|----------------|
    (1+2+3+4+5+6+7+|1+2+3+4+5+6+7+|1+2+3+4+5+6+7+|1+2+3+4+5+6+7 + )

17:45
C   |x-------------|-------------x|x-------------|1-----------xx|
H   |--X-X-X-X-X-X-|X-X-X-X-X-X-X-|--X-X-X-X-X-X-|--X-X-X-X-X---|
S   |----o----o--o-|----o----o--o-|----o----o--o-|----o-o----o--|
B   |o--o--oo---o--|oo-o--oo---o-o|oo-o--oo---o--|oo-o---o-o--oo|
    (1+2+3+4+5+6+7+|1+2+3+4+5+6+7+|1+2+3+4+5+6+7+|1+2+3+4+5+6+7+)

17:56
C   |x------------x|x---------------|
H   |--X-X-X-X-X-X-|--X-X-X-X-X-X---|
S   |----o----o--o-|----o-o--o--o-oo|
B   |o--o--oo---o-o|o--o---o---o----|
    (1+2+3+4+5+6+7+|1+2+3+4+5+6+7 + )
          7/8 but twice as fast.  Sorry!
C   |x---2---2---2-|--2---2---2---|2---2---2---2-|--2---2-------|
S   |--------o--o--|----------o---|--------o--o--|----o-----oooo|
B   |o-----o-------|o---o---o-----|o---o-o-------|o-------o-----|
B2  |--------------|---------o----|-------o------|--------------|
    (1+2+3+4+5+6+7+|1+2+3+4+5+6+7+|1+2+3+4+5+6+7+|1+2+3+4+5+6+7+)

18:07
C   |x-------------|--------------|--------------|--------------|
H   |----X---X---X-|X---X----X----|X---X---X---X-|X---X---X-----|
S   |----o-------o-|----o---------|----o------o--|---o------oo--|
B   |o-------o--o--|o------o---o--|o-------o-----|o-------o---o-|
B2  |--------------|--------------|--------------|-------------o|
    (1+2+3+4+5+6+7+|1+2+3+4+5+6+7+|1+2+3+4+5+6+7+|1+2+3+4+5+6+7+)

C   |x-------------|--------s-----|x-------x-----|x-------------|
H   |----X---X---X-|--X---X---X---|----X------X--|--X---X-------|
S   |----o------o--|----o---------|----o----gg-gg|----o-----dddd|
B   |o-------o-----|o-------o---o-|o-------o--o--|o-------o-----|
Hf  |--------------|--------------|------------x-|--------------|
    (1+2+3+4+5+6+7+|1+2+3+4+5+6+7+|1+2+3+4+5+6+7+|1+2+3+4+5+6+7+)

18:18
C   |x---x---x---x-|x---x---x---x-|x---x---x---x-|x---x---x---x-|
H   |--------------|--------------|--------------|--------------|
S   |----o-------o-|----o-------o-|----o-------o-|----o-------o-|
B   |o-------o--o--|o-------o--o--|o-------o--d--|o-------o-----|
    (1+2+3+4+5+6+7+|1+2+3+4+5+6+7+|1+2+3+4+5+6+7+|1+2+3+4+5+6+7+)

18:24
C   |c---c---c---c-|--c---c---c---|c---c---c---c-|--c---c---c---|
S   |----o-------o-|----o-------o-|----o-------o-|----o-------o-|
B   |o-------o--o--|o-------o-----|o-------o--o--|o-------o-----|
    (1+2+3+4+5+6+7+|1+2+3+4+5+6+7+|1+2+3+4+5+6+7+|1+2+3+4+5+6+7+)

18:30      11/8                          18/8
C   |x-----x-----x-----x---|x-----x-----x-------x-------x-------|
S   |o-----o-----o-----o---|o-----o-----o-------o-------o-------|
B   |--o-o---o-o---o-o---o-|--o-o---o-o---o-o-o---o-o-o---o-o-o-|
    (1+2+3+4+5+6+7+8+9+0+1+|1+2+3+4+5+6+7+8+9+0+1+2+3+4+5+6+7+8+)

18:36     4/4                         |-------------Play 2x-------------|
C   |x---------------|----------------|x---------------|----------------|
H   |----X---X---X---|X---X---X---X---|----X---X---X---|X---X---X---X---|
S   |----o-------o--o|----o--o----o-oo|----o-------o--o|----o--o----o-oo|
B   |o--o--o--o-o----|--o--o--o--d-o--|o--o--o--o-o----|--o--o--o--d-o--|
    (1 + 2 + 3 + 4 + |1 + 2 + 3 + 4 + |1 + 2 + 3 + 4 + |1 + 2 + 3 + 4 + )

C   |x---------------|----------------------|
H   |----X---X---X---|----------------------|
T2  |----------------|--------------oo------|
T3  |----------------|--------oo------------|
T4  |----------------|--oo------------------|
S   |----o-------o---|oo----oo----oo----F-oo|
B   |o--o--o--o-o--o-|----o-----o-----o--o--|
B2  |----------------|-----o-----o-----o----|
    (1 + 2 + 3 + 4 + |1tl+tl2tl+tl3tl+tl4 + )

18:52  (Improvise on the bell)
C   |x---------------|----------------|----------------|c--c--c--c--c---|
R   |--bb-bb-b-b-b-b-|bb-b-b-bb-b-bbb-|b-bb-bbb-bb-b-b-|----------------|
S   |--o---o---o---o-|--o---o---o---o-|--o---o---o---o-|---o-----o----oo|
B   |o-o-o-o-o-o-o-o-|o-o-o-o-o-o-o-o-|o-o-o-o-o-o-o-o-|o-o-o-o-o-o-o-o-|
B2  |-o-o-o-o-o-o-o-o|-o-o-o-o-o-o-o-o|-o-o-o-o-o-o-o-o|-o-o-o-o-o-o-o-o|
    (1 + 2 + 3 + 4 + |1 + 2 + 3 + 4 + |1 + 2 + 3 + 4 + |1e+a2e+a3e+a4e+a)

19:00
C   |x---------------|--2---2---2---2-|x---------------|c--c--c--c--c---|
R   |--bb-bb-bbb-bb-b|b---------------|--bbb-b-bbb-b-bb|----------------|
S   |--o---o---o---o-|--o---o---o---o-|--o---o---o---o-|---o-----o----oo|
B   |o-o-o-o-o-o-o-o-|o-o-o-o-o-o-o-o-|o-o-o-o-o-o-o-o-|o-o-o-o-o-o-o-o-|
B2  |-o-o-o-o-o-o-o-o|-o-o-o-o-o-o-o-o|-o-o-o-o-o-o-o-o|-o-o-o-o-o-o-o-o|
    (1 + 2 + 3 + 4 + |1 + 2 + 3 + 4 + |1 + 2 + 3 + 4 + |1e+a2e+a3e+a4e+a)

19:07
C   |x---x-----------|----------------|x---------------|#-----#-----x---|
H   |--------X---X---|X---X---X---X---|----X---X---X---|----------------|
S   |----o-------o--o|----o-------o-oo|----o-------o---|---F-----F--o-oo|
B   |o-o-o-o-o-o-o-o-|o-o-o-o-o-o-o-o-|o-o-o-o-o-o-o-o-|o-o-o-o-o-o-o-o-|
B2  |-o-o-o-o-o-o-o-o|-o-o-o-o-o-o-o-o|-o-o-o-o-o-o-o-o|-o-o-o-o-o-o-o-o|
    (1 + 2 + 3 + 4 + |1 + 2 + 3 + 4 + |1 + 2 + 3 + 4 + |1e+a2e+a3e+a4e+a)

19:15                                                   >   >   >   >   |
C   |x-c-------------|----------------|--------------2-|2-2-2-2-2-2-2-2-|
R   |-----bb-b-bbb-bb|bb-b-b-bb-b-bbb-|b-bb-bbb-bb-b---|----------------|
S   |--o---o---o---o-|--o---o---o---o-|--o---o---o-----|o---oo--oo--oo--|
B   |o-o-o-o-o-o-o-o-|o-o-o-o-o-o-o-o-|o-o-o-o-o-o-o-o-|o-o-o-o-o-o-o--d|
B2  |-o-o-o-o-o-o-o-o|-o-o-o-o-o-o-o-o|-o-o-o-o-o-o-o-o|-o-o-o-o-o-o----|
    (1 + 2 + 3 + 4 + |1 + 2 + 3 + 4 + |1 + 2 + 3 + 4 + |1 + 2 + 3 + 4 + )

19:24     7/8
C   |--------------|--------------|--------------|c---c---c---c-|
T2  |--------------|--------------|----------o---|--------------|
T3  |--------------|--------------|-----------o--|--------------|
S   |o-------------|--------------|--------o-----|----o-------o-|
F   |o-------------|--------------|--------------|--------------|
B   |--------------|--------------|------------o-|o-------o--d--|
    (1+2+3+4+5+6+7+|1+2+3+4+5+6+7+|1+2+3+4+5+6+7+|1+2+3+4+5+6+7+)

19:30                             |----------Play 3x------------|
C   |c---c---c---c-|--c---c---c---|c---c---c---c-|--c---c---c---|
H   |-------X------|--------------|-------X------|--------------|
S   |----o-------o-|----o-------o-|----o-------o-|----o-------o-|
B   |o-------o--o--|o-------o-----|o-------o--o--|o-------o-----|
Hf  |--------x-----|--------------|--------x-----|--------------|
    (1+2+3+4+5+6+7+|1+2+3+4+5+6+7+|1+2+3+4+5+6+7+|1+2+3+4+5+6+7+)

19:43
C   |x---x---x---x-|x---x---x---x-|x---x---x-----|x---x---x---x-|
R   |--------------|--g---g---g---|--g---g-------|--g---g---g---|
S   |----o-------o-|----o-------o-|----o-----ooo-|----o-------o-|
B   |o-------o--d--|o-------o--d--|o-------o---o-|o-------o--d--|
    (1+2+3+4+5+6+7+|1+2+3+4+5+6+7+|1+2+3+4+5+6+7+|1+2+3+4+5+6+7+)

19:48
C   |x---x---x---x-|x---x---x---x-|x---x---x-----|x---x---x---x-|
T3  |--------------|--------------|----------oo--|--------------|
S   |----o-------o-|----o-------o-|----o---o-----|----o-------o-|
B   |o-------o--d--|o-------o-----|o-----------o-|o-------o-----|
    (1+2+3+4+5+6+7+|1+2+3+4+5+6+7+|1+2+3+4+5+6+7+|1+2+3+4+5+6+7+)

19:54           7/4
C   |x---------------------------|------------------------x---|
H   |----X---X---X---X---X---X---|X---X---X---X---X---X-------|
S   |----o-------o-------o-----oo|----o-------o-------o---o---|
B   |o-------o-------o-------o---|o-------o-------o------d--o-|
    (1 + 2 + 3 + 4 + 5 + 6 + 7 + |1 + 2 + 3 + 4 + 5 + 6 + 7 + )

20:01                                        6/4
C   |x---------------------------|#-----#-----#-----#-----|
S   |o-----F-----F-----F-----F---|------------------------|
B   |--o-o---o-o---o-o---o-o---o-|o-----o-----o-----o-----|
    (1 + 2 + 3 + 4 + 5 + 6 + 7 + |1 + 2 + 3 + 4 + 5 + 6 + )
20:07    6/8 
C   |x-----x-----|x-----x-----|
T1  |--oo--------|------------|
T2  |----o---oo--|------------|
T3  |----------o-|--oo--------|
T4  |------------|----o---oo--|
S   |o-----o-----|o-----o-----|
F   |------------|----------o-|
B   |-----d-----d|-----d-----d|
    (1+2+3+4+5+6+|1+2+3+4+5+6+)

20:10     6/8 (Expanded)                4/4 (Expanded)
C   |------------------------|------------------------b-------|
H   |X-----------X-----------|--------------------------------|
T1  |------------------------|o-o-----------------------------|
T2  |------------------------|-o-oo---o-o---------------------|
T3  |------------------------|-----o---o-oo-------------------|
T4  |------------------------|-------------o------------------|
S   |o-----------o-----------|----------------F---------------|
F   |------------------------|--------------------------------|
B   |----o---o-------o---o---|------o-------o-----------------|
Hf  |--x-----------x---------|-------o-------o----------------|
    (1 + 2 + 3 + 4 + 5 + 6 + |1   +   2   +   3   +   4   +   )

PART VII: THE CRIMSON SUNSET (20:13)
Tabbed by: Jani Kuorikoski

Intro			       _____________ _____________ _____________
		|--repeat-1x--|1.	    |2.		  |3.		|
C  -x2--2--2--2-|--2--2--2--2-|--2--2--2----|--2--2-------|--2--2---xxxx|
S  ----o-----o--|----o-----o--|----o-----foo|----o--foofoo|----o--ggoooo|
B  -o-o--oo-o--o|-o-o--oo-o--o|-o-o--oo-d---|-o-o--d------|-o-o--o------|
  ( 1tl2tl3tl4tl)...

Verse
(Play also the double notes on Hi-Hat closed)
C  -x-----------|-------------|-s-----------|-s-s-s-b-s-s-|
H  ---Xxxx-x-xxX|-xxXxxx-x-xdd|---Xxxx-x-xxx|--d-d-d-d-d-d|
S  ----o-----o--|----o-----o--|----o-----o--|-------------|
B  -o-o---o-o---|-o-o---o-o---|-o-o---o-o---|-o-o-o-o-o-o-|
  ( 1tl2tl3tl4tl)...

C  -x-----------|-------------|-x-----------|-s-----------|
H  ---Xxxx-x-xxX|-xxxxX-------|---XxxX-X-X-X|--X-X-X-X-X--|
T1 -------------|---------d---|-------------|-------------|
T2 -------------|--------d-d--|-------------|-------------|
T3 -------------|-----------d-|-------------|-------------|
T4 -------------|------------d|-------------|-------------|
S  ----o-----o--|----o--d-----|----o-----o--|----o-----ooo|
B  -o-o---o-o---|-o-o--o------|-o-o---o-o---|-o-o-o-o-o---|
Hf -------------|------x------|-------x-----|-------------|


Pre-Chorus
		|--repeat-1x--|
C  -x-----------|-------------|-------------|-------------|
H  --X-X-X-X-X-X|--X-X-X-X-X-X|--X-X-X-X-X--|-------------|
T2 -------------|-------------|-------------|----f--------|
T3 -------------|-------------|-------------|---------f---|
T4 -------------|-------------|-------------|-----------f-|
S  ----o-----o-o|----o-----o-o|----o-----o--|-f-----f-----|
B  -o-o-o-o-o-o-|-o-o-o-o-o-o-|-o-o-o-o-o---|--oo-oo-o-o-o|
  ( 1tl2tl3tl4tl)...

Interlude

C  -x--c--c--c--|-c--c--c--c--|-x--c--x----s|	|-s--x--x--|
H  ------------X|-------------|---------XX--| 3 |----------|
S  ----o-----o--|----o-----ooo|----o---d--d-|---|----o--o--|
B  -o-o---o-o---|-o-o---o-o---|-o-o---o-oo-o| 4 |-o-o-oo---|
Hf -------------|-x-----------|-----------x-|	|----------|
  ( 1tl2tl3tl4tl)...				| 1tl2tl3tl)

		    |--repeat-4x--|     Crescendo
    C  -x-----------|-------------|-x-----------|-------------|
 3  Tm -----------x-|-----------x-|-------------|-------------|
--- H  ---xxxxxx---X|-x-xxxxxx---X|-------------|-------------|
 4  S  ---------oo--|---------oo--|---g-oooooooo|-oooooooooooo|
    B  -o-----o-----|-o-----o-----|-o---o---o---|-o---o---o---|
    Hf -------------|-x-----------|-x-----------|-------------|
      ( 1 + 2 + 3 + )...

Chorus				   ___________________________
				  |1.			      |
 3  C  -x-----------|-------------|-------------|-----------x-|
--- H  -----X---X---|-X---X---X---|-X---X---X---|-X---X---X---|
 4  S  -----o-------|-o-------o---|-----o-------|-o-------o---|
    B  -o--o--o-o--o|---o-o--o--o-|-o--o--o-o--o|---o-o--d--o-|
      ( 1 + 2 + 3 + )...
   ___________________________ ___________________________
  |2.3.			      |4.			  |
C  -------------|-------------|-------------|------------x|
H  -X---X---X---|-X---X---X---|-X-X--X--X-X-|--X--X-X-----|
S  -----o-------|-o-------o-oo|-----o--o----|-o--o----ooo-|
B  -o--o--o-o--o|---o-o--d----|-o-o--o--o-o-|--o--o-o----o|
Hf -------------|-------------|--x--x--x-x--|-x--x-x------|

  |--repeat-5x--|
C  -x---x---x---|-x---x---x---|-x---x---x-x-|
S  -----o---o---|-o---o---o---|-o---o---o---|
B  -o--o--o---o-|----o--o----d|---o----d--o-|

  |--repeat-1x--|			    |--repeat-3x--|
C  -x-----------|-x-----------|-x-------x---|-x-----------|
H  -----X-X-X-X-|---X-X-X-X-X-|---X-X-X---X-|---X-X-X-X-X-|
S  -o---o---o---|-o---o---o---|-o---o---o---|-o---o---o---|
B  -oooooooooooo|-oooooooooooo|-oooooooooooo|-oooooooooooo|


Outro

C  -x-----------|-x-----------|-x-------x---|-x-----1-x---|
t  ----doo------|-------------|-------------|-------------|
t2 -------dooooo|-------------|-------------|-------------|
T1 -------------|----doo------|-------------|-------------|
T2 -------------|-------do----|-------------|-------------|
T3 -------------|---------oo--|-------------|-------------|
T4 -------------|-----------o-|-------------|-------------|
S  -------------|-------------|-------o---o-|-------o---o-|
FT -------------|-------------|----o--------|----o--------|
B  -o-----------|-o----------o|-o----d--o---|-o-o--d--o---|
  ( 1 + 2 + 3 + )...

C  -x-----1-----|-1-----1-----|-x-----------|	|-----------|
H  -------------|---------X---|-------------| 5 |-----------|
S  -------o-----|-o-----o---o-|-------------|---|---oo------|
F2 ----o-----o--|----o--------|-------------| 8 |-----------|
B  -o----d-----d|------d--o---|-o--ddddddddd|	|-dd--------|
Hf -------------|-----------x-|-------------|   |-----------|

 4
--- C  -xxxxxxxxxxxxxxxx|-xxxxxxxxxxxxxxxx|
 4  B  -o---------------|-----------------|

Mess around at the end

END OF A CHANGE OF SEASONS
Ok well that was fun.  I hope this makes the tab more convinient for the readers than 7 seperate tabs.  Have fun,
Dean Christesen ([email protected])
Jani Kuorikoski ([email protected])

	  

No existe una video leccione para esta canción

request
LosAcordes
Buscar
auto avanzar rasgueos aumentar disminuir cambiar color
losacordes exhibir acordes losacordes youTube video losacordes ocultar tabs losacordes ir hacia arriba losacordes