Van Morrison

Início > Van Morris... > acordes

Caravan Tablatura Bajo

Van Morrison

Dificultad:Ningún gradoNingún grado

carlluz

tuner correct add songbook print version text version salvar en e-mail
acordesukuleletablaturabaixobateríaarmónicaflautacavacopiano Guitar Pro
acordes

Caravan

Tono:  C
	   
 Intro 
  Q=76 
 4/4 
  Gtr I 
   W          H    S E S S S e 
G|----------|------4-----------|| 
D|----------|--------7-5-------|| 
A|----------|--------------7-5-|| 
E|----------|------------------|| 


   1st - 3rd Verses 
    Segno $ 
     e E +E. S e E +E. S   e E +E. S e Q  E   e E +E. S e E +E. S 
G||----------------------|------------------|---------------------| 
D||o-5-5-(5)-------------|------------------|-5-5-(5)-------------| 
A||o---------5-7-7-(7)---|-3-3-(3)-3-5-5--5-|---------5-7-7-(7)---| 
E||--------------------7-|------------------|-------------------7-| 


   e E +E. S e Q  E   e Q  E e Q  E   e Q  E e Q  E 
G|------------------|---------------|---------------| 
D|------------------|---------------|---------------| 
A|-3-3-(3)-3-5-5--5-|-3-3--3-2-2--2-|-------------2-| 
E|------------------|---------------|-5-5--5-3-3----| 


                                            Chorus 
   e E +E. S e E +E. S   e E +E. S e Q  E    Q  Q  e Q  E 
G|---------------------|------------------||--------------| 
D|---------------------|------------------||-5------------| 
A|-3-3-(3)-3-2-2-(2)-2-|----------------5-||----3--2-3--3-| 
E|---------------------|-5-5-(5)-5-3-3----||--------------| 


                                       1. 
   e Q  E +E  E S S E   Q  Q  e Q  E   e Q  E +E  S S S S E 
G|--------------------|--------------|-----------------------|| 
D|--------------------|-5------------|----------------------o|| 
A|-2----------2-3-4-5-|----3--2-3--3-|-2------------2---2-5-o|| 
E|---5--3-(3)---------|--------------|---5--3-(3)-3----------|| 


                      Bridge 
   2.,D.S. 
   e Q  E +E  E E E     Q.   E Q.   E   Q.   E E. S E E  7x 
G|------------------||----------------|------------------|| 
D|------------------||o---------------|-----------------o|| 
A|-2-0------------2-||o-3----3-2----2-|---------------2-o|| 
E|------3-(3)-3-3---||----------------|-5----5-3--3-3----|| 


   Q.   E Q.   E   Q.   E Q  E e   Q  E E Q  E E   Q  E E Q  E E 
G|---------------|---------------|---------------|---------------| 
D|---------------|-----------5---|---------------|---------------| 
A|-3----3-2----2-|---------------|-3----3-2----2-|---------------| 
E|---------------|-5----5-3----3-|---------------|-5----5-3----3-| 


                                  Chorus 
          To Coda 
   Q  E E Q  E E    Q  E E q  Q     Q  Q  e Q  E 
G|----------------|--------------||--------------| 
D|----------------|--------------||-5------------| 
A|-3----3-2----2--|-3----3-------||----3--2-3--3-| 
E|----------------|--------3-----||--------------| 


                                            Dal Segno al Coda 
   e Q  E +E  E S S E   Q  Q  e Q  E   e Q  E +E  S S S S E 
G|--------------------|--------------|-----------------------|| 
D|--------------------|-5------------|-----------------------|| 
A|-2----------2-3-4-5-|----3--2-3--3-|-2------------2---2-5--|| 
E|---5--3-(3)---------|--------------|---5--3-(3)-3----------|| 


                   Outro 
   Coda & 
   Q  E E Q  E E     Q  E E Q  E E   Q  E E Q  E E  5x 
G|---------------||----------------|----------------|| 
D|---------------||o---------------|---------------o|| 
A|---------------||o-3----3-2----2-|---------------o|| 
E|-5----5-3----3-||----------------|-5----5-3----3--|| 
 
	  

No existe una video leccione para esta canción

request
Aumentar uno tonoAumentar uno tono
Aumentar uno semi-tonoAumentar uno semi-tono
Disminuir uno semi-tonoDisminuir uno semi-tono
Disminuir uno tonoDisminuir uno semi-tono
LosAcordes
Buscar
auto avanzar rasgueos aumentar disminuir cambiar color esconder acordes gráficos
losacordes exhibir acordes losacordes youTube video losacordes ocultar tabs losacordes ir hacia arriba losacordes