Van Morrison

Início > Van Morris... > acordes

Bright side of the Road Tablatura Bajo

Van Morrison

Dificultad:Ningún gradoNingún grado

terr_schmitz

tuner correct add songbook print version text version salvar en e-mail
acordesukuleletablaturabaixobateríaarmónicaflautacavacopiano Guitar Pro
acordes

Bright side of the Road

Tono:  C
	  
Intro: 
G|------------------------------------------------------| 
D|---0--2--1--3--2--5-3-2-------------------------------| 
A|-3----------------------5---3-----------3-------0-1-2-| 
E|-------------------------------0--1--2-----0--3-------| 

verse 1: 
G|-----------------------------------------------------| 
D|---0--2--1--3--2--5-3-2-------0--2--1--3--2--5-3-2---| 
A|-3----------------------5---3----------------------5-| 
E|-----------------------------------------------------| 

G|------------------------------------------------------| 
D|---0--2--1--3--2--5-3-2-------------------------------| 
A|-3----------------------5---3-----------3-------0-1-2-| 
E|-------------------------------0--1--2-----0--3-------| 

verse 2: 
G|-----------------------------------------------------| 
D|---0--2--1--3--2--5-3-2-------0--2--1--3--2--5-3-2---| 
A|-3----------------------5---3----------------------5-| 
E|-----------------------------------------------------| 

G|--------------------------------------------------------| 
D|---0--2--1--3--2--5-3-2---------------------------------| 
A|-3----------------------5---3-----------3-------0--3--3-| 
E|-------------------------------0--1--2-----0--3---------| 

Bridge 1: 
G|-----------------2--5--7------------------5-3-2-------------------| 
D|-3--x---3--x---3---------------------------------5-4-3--x---3--x--| 
A|-----3------3-------------3--x---3--x---3----------------3------3-| 
E|------------------------------3------3----------------------------| 

G|---2--5--5-6-7--------------------------| 
D|-3--------------5----3-4-5--5---5-5-5-5-| 
A|-------------------5--------------------| 
E|----------------------------------------| 

verse 3: 
G|-----------------------------------------------------| 
D|---0--2--1--3--2--5-3-2-------0--2--1--3--2--5-3-2---| 
A|-3----------------------5---3----------------------5-| 
E|-----------------------------------------------------| 

G|------------------------------------------------------| 
D|---0--2--1--3--2--5-3-2-------------------------------| 
A|-3----------------------5---3-----------3-------0-1-2-| 
E|-------------------------------0--1--2-----0--3-------| 

Interlude: 
G|-----------------------------------------------------| 
D|---0--2--1--3--2--5-3-2-------0--2--1--3--2--5-3-2---| 
A|-3----------------------5---3----------------------5-| 
E|-----------------------------------------------------| 

G|------------------------------------------5-3-2------| 
D|---0--2--1--3--2--5-3-2--------------------------5-4-| 
A|-3----------------------5---3-----------3------------| 
E|-------------------------------0--1--2---------------| 

Bridge 2: 
G|------------------2--5--7-----------------5-3-2-------------------| 
D|-3--x---3--x---3---------------------------------5-4-3--x---3--x--| 
A|-----3------3--------------3--x---3--x--3----------------3------3-| 
E|-------------------------------3------3---------------------------| 

G|---2--5--6--7--------------------------| 
D|-3-------------5----3-4-5--5---5-5-5-5-| 
A|------------------5--------------------| 
E|---------------------------------------| 

verse 4: 
G|-----------------------------------------------------| 
D|---0--2--1--3--2--5-3-2-------0--2--1--3--2--5-3-2---| 
A|-3----------------------5---3----------------------5-| 
E|-----------------------------------------------------| 

G|------------------------------------------------------| 
D|---0--2--1--3--2--5-3-2-------------------------------| 
A|-3----------------------5---3-----------3-------0-1-2-| 
E|-------------------------------0--1--2-----0--3-------| 

Outro: (Repeat Outro To Fade/End) 
G|-----------------------------------------------------| 
D|---0--2--1--3--2--5-3-2-------0--2--1--3--2--5-3-2---| 
A|-3----------------------5---3----------------------5-| 
E|-----------------------------------------------------| 

G|------------------------------------------------------| 
D|---0--2--1--3--2--5-3-2-------------------------------| 
A|-3----------------------5---3-----------3-------0-1-2-| 
E|-------------------------------0--1--2-----0--3-------|  
	  

No existe una video leccione para esta canción

request
LosAcordes
Buscar
auto avanzar rasgueos aumentar disminuir cambiar color esconder acordes gráficos
losacordes exhibir acordes losacordes youTube video losacordes ocultar tabs losacordes ir hacia arriba losacordes