Trisha Yearwood

Início > Trisha Yea... > acordes

New Kid In Town Tablatura Bajo

Trisha Yearwood

Dificultad:Ningún gradoNingún grado

tuner correct add songbook print version text version salvar en e-mail
acordesukuleletablaturabaixobateríaarmónicaflautacavacopiano Guitar Pro
acordes

New Kid In Town

	  Gtr I Bass 
 
        Intro 
  Q=108 
 4/4 
  Gtr I 
  W      Q  E E +Q   Q    Q  E E +Q   Q 
|-----||------4-(4)-----|------4-(4)-----| 
|-----||-2--------------|-2-----------2--| 
|-----||-------------2--|----------------| 
|-----||----------------|----------------| 
 
 
  Q  E E +Q   Q    Q  E E +Q   Q    Q  E E +Q   Q    Q  E E +Q   Q 
|----------------|----------------|----------------|---------------| 
|------4-(4)-----|------4-(4)-----|------2-(2)-----|------4-(4)----| 
|-2--------------|-2-----------2--|-0-----------4--|-2-----------2-| 
|-------------2--|----------------|----------------|---------------| 
 
 
                                    Verse 1 
  Q  E E +Q   Q    Q  E E +Q   Q     Q  E E +Q   Q    Q  E E +Q   Q 
|------4-(4)-----|------4-(4)-----||------4-(4)-----|------4-(4)----| 
|-2--------------|-2--------------||-2--------------|-2-----------2-| 
|-------------2--|-------------2--||-------------2--|---------------| 
|----------------|----------------||----------------|---------------| 
 
 
  Q  E E +Q   Q    Q  E E +Q   Q    Q  E E +Q   Q    Q  E E +Q   Q 
|----------------|----------------|----------------|---------------| 
|------4-(4)-----|------4-(4)-----|------2-(2)-----|------4-(4)----| 
|-2--------------|-2-----------2--|-0-----------4--|-2-----------2-| 
|-------------2--|----------------|----------------|---------------| 
 
 
  Q  E E +Q   Q    Q  E  E  +Q    Q     Q  E  E  +Q   Q    Q  E E +Q   Q 
|------4-(4)-----|-9----16-(16)------|-------------------|------4-(4)----| 
|-2--------------|-------------------|-------------------|-2-----------2-| 
|-------------2--|---------------14--|-------14-(14)--2--|---------------| 
|----------------|-------------------|-12----------------|---------------| 
 
 
  Q  E E +Q   Q    Q  E E +Q   Q    Q  E E +Q   Q    Q  E E +Q   Q 
|----------------|----------------|----------------|---------------| 
|------4-(4)-----|------4-(4)-----|------2-(2)-----|------4-(4)----| 
|-2--------------|-2-----------2--|-0-----------4--|-2-----------2-| 
|-------------2--|----------------|----------------|---------------| 
 
 
                                                     Chorus 
  Q  E E +Q   Q    Q  E E +Q   Q    Q  E E +Q   Q     Q  E E +Q   Q 
|------4-(4)-----|----------------|----------------||------6-(6)----| 
|-2-----------2--|----------------|------6-(6)--5--||-4-----------6-| 
|----------------|------6-(6)-----|-4--------------||---------------| 
|----------------|-4-----------4--|----------------||---------------| 
 
 
  Q  E E +Q   Q    Q  E E +Q   Q    Q  E E +Q   Q    Q  E E +Q   S S E 
|----------------|------6-(6)-----|----------------|------6-(6)--------| 
|------6-(6)--5--|-4-----------6--|------6-(6)--5--|-4-----------6-----| 
|-4--------------|----------------|-4--------------|-------------------| 
|----------------|----------------|----------------|-------------------| 
 
 
                                    Verse 2 
  Q  E E +Q   Q    Q  E E +Q   Q     W          +H     +Q   Q 
|----------------|----------------||----------|---------------| 
|----------------|------4-(4)-----||----------|---------------| 
|------4-(4)-----|-2-----------2--||----------|---------------| 
|-2-----------2--|----------------||-0--------|-(0)----(0)----| 
 
 
  Q  E E +Q   +S  S E   Q  E E +Q   +S  S E   Q  E E +Q   Q    Q  E E +Q   Q 
|---------------------|---------------------|----------------|---------------| 
|---------------------|---------------------|------2-(2)-----|------4-(4)----| 
|------2-(2)--(2)-----|------2-(2)--(2)-----|-0-----------4--|-2-----------2-| 
|-2-------------------|-2-------------------|----------------|---------------| 
 
 
  Q  E E +Q   Q    Q  E E +Q   Q    Q  E E +Q   Q    Q  E E +Q   Q 
|------4-(4)-----|------4-(4)-----|------4-(4)-----|------4-(4)----| 
|-2--------------|-2--------------|-2--------------|-2-----------2-| 
|-------------2--|-------------2--|-------------2--|---------------| 
|----------------|----------------|----------------|---------------| 
 
 
  Q  E E +Q   Q    Q  E E +Q   Q    Q  E E +Q   Q    Q  E E +Q   Q 
|----------------|----------------|----------------|---------------| 
|------4-(4)-----|------4-(4)-----|------2-(2)-----|------4-(4)----| 
|-2--------------|-2-----------2--|-0-----------4--|-2-----------2-| 
|-------------2--|----------------|----------------|---------------| 
 
 
                                    Chorus 
  Q  E E +Q   Q    Q  E E +Q   Q     Q  E E +Q   Q    Q  E E +Q   Q 
|------4-(4)-----|----------------||----------------|------6-(6)----| 
|-2-----------2--|------1-(1)-----||------6-(6)--5--|-4-----------6-| 
|----------------|-0--------------||-4--------------|---------------| 
|----------------|-------------4--||----------------|---------------| 
 
 
  Q  E E +Q   Q    Q  E E +Q   Q    Q  E E +Q   Q    Q  E E +Q   S S E 
|----------------|------6-(6)-----|----------------|------6-(6)--------| 
|------6-(6)--5--|-4-----------6--|------6-(6)--5--|-4-----------6-----| 
|-4--------------|----------------|-4--------------|-------------------| 
|----------------|----------------|----------------|-------------------| 
 
 
                                    Guitar Solo 
  Q  E E +Q   Q    Q  E E +Q   Q     Q  E E +Q   Q    Q  E E +Q   Q 
|----------------|----------------||------4-(4)-----|------4-(4)----| 
|----------------|------4-(4)-----||-2--------------|-2-----------2-| 
|------4-(4)-----|-2-----------2--||-------------2--|---------------| 
|-2-----------2--|----------------||----------------|---------------| 
 
 
  Q  E E +Q   Q    Q  E E +Q   Q    Q  E E +Q   Q    Q  E E +Q   Q 
|----------------|----------------|----------------|---------------| 
|------4-(4)-----|------4-(4)-----|------2-(2)-----|------4-(4)----| 
|-2--------------|-2-----------2--|-0-----------4--|-2-----------2-| 
|-------------2--|----------------|----------------|---------------| 
 
 
                                 Bridge 
  Q  E E +Q   Q    Q  Q  Q  Q     Q  E E +Q   Q    Q  E E +Q   Q 
|------4-(4)-----|-2--1--------||----------------|---------------| 
|-2-----------2--|-------4--2--||------4-(4)-----|------4-(4)----| 
|----------------|-------------||-2--------------|-2-----------2-| 
|----------------|-------------||-------------2--|---------------| 
 
 
  Q  E E +Q   Q    Q  E E +Q   Q    Q  E E +Q   Q    Q  E E +Q   Q 
|------4-(4)-----|------4-(4)-----|----------------|---------------| 
|-2--------------|-2-----------2--|------4-(4)-----|------4-(4)----| 
|-------------2--|----------------|-2--------------|-2-----------2-| 
|----------------|----------------|-------------2--|---------------| 
 
 
  Q  E E +Q   Q    Q  E E +Q   Q    Q  E E +Q   Q    Q  +S  S E Q  Q 
|----------------|------6-(6)-----|----------------|------------------|| 
|------6-(6)-----|-4-----------6--|-7----7-(7)-----|------------------|| 
|-4-----------4--|----------------|-------------7--|-5--(5)-----7--9--|| 
|----------------|----------------|----------------|------------------|| 
 
 
 Verse 3 
   Q  E  E  +Q    Q     Q  E  E  +Q    Q 
|--------------------|--------------------| 
|-------12-(12)------|-------12-(12)------| 
|-10-----------------|-10-------------12--| 
|----------------10--|--------------------| 
 
 
  Q  E  E  +Q    +S  S E   Q  E  E  +Q   E S S 
|------------------------|----------------------| 
|------------------------|----------------------| 
|-0----------------------|-0---------------0----| 
|------10-(10)--(10)-----|------10-(10)---------| 
 
 
  Q  E  E  +Q   Q     Q  E  E  +Q    Q 
|------------------|--------------------| 
|------------------|--------------------| 
|------10-(10)-----|-------12-(12)------| 
|-8-------------8--|-10-------------10--| 
 
 
   Q  E  E  +Q    Q     Q  E  E  +Q    Q 
|--------------------|-------------------| 
|-------12-(12)------|-------12-(12)-----| 
|-10-----------------|-10----------------| 
|----------------10--|----------------10-| 
 
 
   Q  E  E  +Q    Q     Q  E  E  +Q    Q 
|--------------------|--------------------| 
|-------12-(12)------|-------12-(12)------| 
|-10-----------------|-10-------------10--| 
|----------------10--|--------------------| 
 
 
   Q  E  E  +Q   Q     Q  E  E  +Q   Q 
|-------------------|------------------| 
|-------------------|------------------| 
|-------12-(12)--0--|-------12-(12)--0-| 
|-10----------------|-10---------------| 
 
 
  Q  E  E  +Q   Q     Q  E  E  +Q    Q 
|------------------|--------------------| 
|------------------|--------------------| 
|------10-(10)-----|-------12-(12)------| 
|-8-------------8--|-10-------------10--| 
 
 
   Q  E  E  +Q    Q    Q  E E +S  S  S S S S E 
|--------------------|-------------------------| 
|-------12-(12)------|-------------------------| 
|-10-------------10--|------9-(9)---10---9---7-| 
|--------------------|-7-----------------------| 
 
 
  +Q   +S  S E Q  Q    Q  E E +S  S S S S S E   +Q   +S  S E Q  Q 
|--------------------|------------------------|--------------4--3-| 
|--------------9--8--|-7------------5---4---2-|-(2)--(2)----------| 
|-(7)--(7)-----------|------------------------|-------------------| 
|--------------------|------5-(5)-------------|-------------------| 
 
 
  Q  E E +S  S S S S S E   +Q   +S  S E Q  Q    Q  E E +Q   Q    Q  E E +Q   Q 
|-2------------0---------|--------------4--3--|-2----9-(9)-----|------9-(9)----| 
|------------------4---2-|-(2)--(2)-----------|----------------|-7-----------7-| 
|------0-(0)-------------|--------------------|-------------7--|---------------| 
|------------------------|--------------------|----------------|---------------| 
 
 
                        Chorus/Outro 
  Q  E S S S S S S Q     Q  +S  S E +Q   +S  S E 
|---------------------||-------------------------| 
|-9----9---9---7------||----------9-(9)--(9)-----| 
|------------------9--||-------------------------| 
|---------------------||-0--(0)---7-(7)--(7)-----| 
 
 
  Q  E E +Q   Q    Q  E E +Q   Q 
|----------------|----------------| 
|----------------|----------------| 
|------6-(6)-----|------7-(7)-----| 
|-4-----------4--|-5-----------5--| 
 
 
  E S S S S S S Q  Q    Q  E E +Q   Q    Q  E E +Q   Q    Q  E E +Q   Q 
|---------------------|----------------|----------------|----------------| 
|---------------------|----------------|----------------|----------------| 
|-----------2------2--|------2-(2)-----|------6-(6)-----|------7-(7)-----| 
|---7---2-------2-----|-0-----------2--|-4-----------4--|-5-----------5--| 
 
 
  E S S S S S S Q  Q    Q  E E +Q   Q    Q  E E +Q   Q    Q  E E +Q   +S  S E 
|---------------------|----------------|----------------|----------------------| 
|---------------------|----------------|----------------|----------------------| 
|-----------2------2--|------2-(2)-----|------6-(6)-----|------7-(7)--(7)------| 
|---7---2-------2-----|-0-----------4--|-4-----------4--|-5--------------------| 
 
 
  E S S S S S S Q  Q    Q  E S S Q  Q    Q  E S S Q  Q 
|---------------------|----------------|---------------| 
|---7---7---7---7--7--|------9---9-----|---------------| 
|---------------------|-7--------------|-7----7---7--6-| 
|---------------------|-------------7--|---------------| 
 
 
  Q  E S S Q  Q    Q  E S S Q  Q    Q  E S S Q  Q    Q  E S S Q  Q 
|----------------|----------------|----------------|---------------| 
|------6---6-----|----------------|------9---9-----|---------------| 
|-4--------------|-4----4---4--6--|-7--------------|-7----7---7--6-| 
|-------------4--|----------------|-------------7--|---------------| 
 
 
  Q  E S S Q  Q    Q  E S S Q  Q    Q  E S S Q  Q    Q  E S S Q  Q 
|----------------|----------------|----------------|---------------| 
|------6---6-----|----------------|------9---9-----|---------------| 
|-4--------------|-4----4---4--6--|-7--------------|-7----7---7--6-| 
|-------------4--|----------------|-------------7--|---------------| 
 
 
  Q  E S S Q  Q    Q  E S S Q  Q    Q  E S S Q  Q    Q  E S S Q  Q 
|----------------|----------------|----------------|---------------| 
|------6---6-----|----------------|------9---9-----|---------------| 
|-4--------------|-4----4---4--6--|-7--------------|-7----7---7--6-| 
|-------------4--|----------------|-------------7--|---------------| 
 
 
  Q  E S S Q  Q    Q  E S S Q  Q    Q  E S S Q  Q    Q  E S S Q  Q 
|----------------|----------------|----------------|---------------| 
|------6---6-----|----------------|------9---9-----|---------------| 
|-4--------------|-4----4---4--6--|-7--------------|-7----7---7--6-| 
|-------------4--|----------------|-------------7--|---------------| 
 
 
  Q  E S S Q  Q    Q  E S S Q  Q    Q  E S S Q  Q    Q  E S S Q  Q 
|----------------|----------------|----------------|---------------| 
|------6---6-----|----------------|------9---9-----|---------------| 
|-4--------------|-4----4---4--6--|-7--------------|-7----7---7--6-| 
|-------------4--|----------------|-------------7--|---------------| 
 
 
  Q  E S S Q  Q    Q  E S S Q  Q    Q  E S S Q  Q    Q  E S S Q  Q 
|----------------|----------------|----------------|-----------------*| 
|------6---6-----|----------------|------9---9-----|-----------------*| 
|-4--------------|-4----4---4--6--|-7--------------|-7----7---7--6---*| 
|-------------4--|----------------|-------------7--|-----------------*| 
 
 
Duration Legend 
--------------- 
W - whole; H - half; Q - quarter; E - 8th; S - 16th; T - 32nd; X - 64th; a - acciaccatura 
+ - note tied to previous; . - note dotted; .. - note double dotted 
Uncapitalized letters represent notes that are staccato (1/2 duration) 
Irregular groupings are notated above the duration line 
Duration letters will always appear directly above the note/fret number it represents the 
duration for.  Duration letters with no fret number below them represent rests.  Multi- 
bar rests are notated in the form Wxn, where n is the number of bars to rest for.  Low 
melody durations appear below the staff 
 
Tablature Legend 
---------------- 
 h   - hammer-on 
 p   - pull-off 
 b   - bend 
 pb  - pre-bend 
 r   - bend release (if no number after the r, then release immediately) 
 /\  - slide into or out of (from/to "nowhere") 
 s   - legato slide 
 S   - shift slide 
  - natural harmonic 
n  - artificial harmonic 
n(n) - tapped harmonic 
 ~   - vibrato 
 tr  - trill 
 T   - tap 
 TP  - trem. picking 
 PM  - palm muting 
\n/  - tremolo bar dip; n = amount to dip 
 \n  - tremolo bar down 
 n/  - tremolo bar up 
/n\  - tremolo bar inverted dip 
 =   - hold bend; also acts as connecting device for hammers/pulls 
 <>  - volume swell (louder/softer) 
 x   - on rhythm slash represents muted slash 
 o   - on rhythm slash represents single note slash 
 
Misc Legend 
----------- 
 |  - bar 
||  - double bar 
||o - repeat start 
o|| - repeat end 
*|  - double bar (ending) 
 :  - bar (freetime) 
 $  - Segno 
 &  - Coda 
Tempo markers -  = BPM(8/16=s8/s16), where s8 = swing 8ths, s16 = swing 16ths 
 

	  

No existe una video leccione para esta canción

request
Aumentar uno tonoAumentar uno tono
Aumentar uno semi-tonoAumentar uno semi-tono
Disminuir uno semi-tonoDisminuir uno semi-tono
Disminuir uno tonoDisminuir uno semi-tono
LosAcordes
Buscar
auto avanzar rasgueos aumentar disminuir cambiar color esconder acordes gráficos
losacordes exhibir acordes losacordes youTube video losacordes ocultar tabs losacordes ir hacia arriba losacordes