Train

Início > Train > acordes

Bruises Tablatura Bajo

Train

Dificultad:Ningún gradoNingún grado

terr_schmitz

tuner correct add songbook print version text version salvar en e-mail
acordesukuleletablaturabaixobateríaarmónicaflautacavacopiano Guitar Pro
acordes

Bruises

	  
Intro 
G|----------------------| 
D|----------------------| 
A|--5-5-----------------| 
E|-------3-3--7-7--5-5--|(x2) 

Verse 
G|----------------------| 
D|----------------------| 
A|--5-5-----------------| 
E|-------3-3--7-7--5-5--|(x3) 

G|----------------------| 
D|----------------------| 
A|--2-2--5-5------------| 
E|------------3-3--5-5--| 

G|----------------------| 
D|----------------------| 
A|--5-5-----------------| 
E|-------3-3--7-7--5-5--|(x3) 

G|----------------------| 
D|----------------------| 
A|--2-2--5-5------------| 
E|------------3-3--5-5--| 

Pre-Chorus 
G|----------------------| 
D|----------------------| 
A|--7-7--7-7------------| 
E|------------5-5--5-5--| 

Chorus 
G|----------------------| 
D|----------------------| 
A|--5-5-----------------| 
E|-------3-3--7-7--5-5--|(x2) 

G|------------------------------------------| 
D|------------------------------------------| 
A|----------------------7-7--5-5------------| 
E|--3-3--5-5--2-2--7-7------------3-3--5-5--| 

G|----------------------| 
D|----------------------| 
A|--5-5-----------------| 
E|-------3-3--7-7--5-5--|(x2) 

verse 2 
G|----------------------| 
D|----------------------| 
A|--5-5-----------------| 
E|-------3-3--7-7--5-5--|(x3) 

G|----------------------| 
D|----------------------| 
A|--2-2-----------------| 
E|-------2-2--3-3--5-5--| 

verse 2 
G|----------------------| 
D|----------------------| 
A|--5-5-----------------| 
E|-------3-3--7-7--5-5--|(x3) 

G|----------------------| 
D|----------------------| 
A|--2-2------------5-5--| 
E|-------2-2--3-3-------| 

Pre-Chorus 2 
G|----------------------| 
D|----------------------| 
A|--7-7--7-7------------| 
E|------------5-5--5-5--| 

Chorus 2 
G|----------------------| 
D|----------------------| 
A|--5-5-----------------| 
E|-------3-3--7-7--5-5--|(x2) 

G|------------------------------------------| 
D|------------------------------------------| 
A|----------------------7-7--5-5------------| 
E|--3-3--5-5--2-2--7-7------------3-3--5-5--| 

G|----------------------| 
D|----------------------| 
A|--5-5-----------------| 
E|-------3-3--7-7--5-5--|(x2) 

Bridge 
G|------------------------------------------| 
D|------------------------------------------| 
A|----------------------7-7-------5-5-------| 
E|--3-3--5-5--2-2--3-3-------5-5-------2-2--| 

G|----------------------------| 
D|----------------------------| 
A|-------5-5--5-5--7~---------| 
E|--3-3-----------------------| 
 
	  

No existe una video leccione para esta canción

request
LosAcordes
Buscar
auto avanzar rasgueos aumentar disminuir cambiar color esconder acordes gráficos
losacordes exhibir acordes losacordes youTube video losacordes ocultar tabs losacordes ir hacia arriba losacordes