Title Fight

Início > Title Figh... > acordes

Gmt (greenwich Mean Time) Tablatura Bajo

Title Fight

Dificultad:Ningún gradoNingún grado

hugo_rodrigues

tuner correct add songbook print version text version salvar en e-mail
acordesukuleletablaturabaixobateríaarmónicaflautacavacopiano Guitar Pro
acordes

Gmt (greenwich Mean Time)

	  
Intro: 
G|--0-0-0/0-00-0-0-00-0-0-0-0-00?0/0-0-0-0-0-0-0-| 
D|--2-2-2/4-44-5p4-00-4p5-5-5-55?5/9-9-9-9-9-9-9-| 
A|-----------------------------------------------| 
E|-----------------------------------------------| 

Intro played throughout first verse: 
G|--0-0-0/0-00-0-0-00-0-0-0-0-00?0/0-0-0-0-0-0-0-| 
D|--2-2-2/4-44-5p4-00-4p5-5-5-55?5/9-9-9-9-9-9-9-| 
A|-----------------------------------------------| 
E|-----------------------------------------------| 
       See my breath? 
         With every word? 

Song breaks out into: 
G|------------------| 
D|------------------| 
A|--------2-0-2-3~--| 
E|--0-0-------------| 

Chorus: 
G|--------------------------------------| 
D|--------------------------------------| 
A|------------2-2-2-2-------------3-3-3-| 
E|--3-3-3-3-3---------0-0-0-0-0-0-------| 
        Looking out? 

Second Verse: 
G|------------------| 
D|------------------| 
A|--------2-0-2-3~--| 
E|--0-0-------------| 
          See my breath? 

Outro: 
G|--0-0-0/0-00-0-0-00-0-0-0-0-00?0/0-0-0-0-0-0-0-| 
D|--2-2-2/4-44-5p4-00-4p5-5-5-55?5/9-9-9-9-9-9-9-| 
A|-----------------------------------------------| 
E|-----------------------------------------------| 

End on: 
G|---0----| 
D|---10~--| 
A|--------| 
E|--------| 
	  

No existe una video leccione para esta canción

request
LosAcordes
Buscar
auto avanzar rasgueos aumentar disminuir cambiar color esconder acordes gráficos
losacordes exhibir acordes losacordes youTube video losacordes ocultar tabs losacordes ir hacia arriba losacordes