The Feeling

Início > The Feelin... > acordes

Love It When You Call Tablatura Bajo

The Feeling

Dificultad:Ningún gradoNingún grado

P!ATD

tuner correct add songbook print version text version salvar en e-mail
acordesukuleletablaturabaixobateríaarmónicaflautacavacopiano Guitar Pro
acordes

Love It When You Call

	       1   &   2   &   3   &   4   &     1   &   2   &   3   &   4   &     1   &   2   &   3   &   4   &     1   &   2   &   3   &   4   & 


INTRO: 

G|---------------------------------|---------------------------------|---------------------------------|---------------------------------| 
D|---------------------------------|---------------------------------|---------------------------------|---------------------------------| 
A|---------------------------------|---------------------------------|---------------------------------|----------------------2---2---3--| 
E|---------------------------------|---------------------------------|---------------------------------|---------------------------------| 
    ^Build Up                         ^Drums 

G|---------------------------------|---------------------------------|---------------------------------|---------------------------------| 
D|---------------------------------|---------------------------------|---------------------------------|---------------------------------| 
A|--3---3---3---3---3--------------|---------------------------------|---------------------------------|----------------------2---2---3--| 
E|----------------------0---0---1--|--1---1---1---1---1---3---3---5--|--5---5---5---5---5---0---0---1--|--1---1---1---1---1--------------| 


VERSE 1: 

G|---------------------------------|---------------------------------|---------------------------------|---------------------------------| 
D|--3------------------------------|---------------------------------|---------------------------------|---------------------------------| 
A|---------------------------------|---------------------------------|---------------------------------|----------------------2---2---3--| 
E|----------------------0---0---1--|--1-------------------3---3---5--|--5-------------------0---0---1--|--1------------------------------| 

G|---------------------------------|---------------------------------|---------------------------------|---------------------------------| 
D|--3------------------------------|---------------------------------|---------------------------------|---------------------------------| 
A|---------------------------------|---------------------------------|---------------------------------|----------------------2---2---3--| 
E|----------------------0---0---1--|--1-------------------3---3---5--|--5-------------------0---0---1--|--1------------------------------| 


PRE-Chorus: 

G|---------------------------------|---------------------------------|---------------------------------|---------------------------------| 
D|---------------------------------|---------------------------------|---------------------------------|---------------------------------| 
A|--3---3---3---3---3---7---7---8--|--8---8---8---8---8---10--10--12-|--12--12--12--12--12--7---7---8--|--8---8---8---8---8--------------| 
E|---------------------------------|---------------------------------|---------------------------------|----------------------7---7---8--| 
    .   .   .   .   .   .   .   .     .   .   .   .   .   .   .   .     .   .   .   .   .   .   .   .     .   .   .   .   .   .   .   . 

G|---------------------------------|---------------------------------|---------------------------------|---------------------------------| 
D|---------------------------------|---------------------------------|---------------------------------|---------------------------------| 
A|--------------------------7---7--|--8---8---8---8---8---10--10-/12-|--12---------9/10-10----------5--|--9---------------5-------------| 
E|--8---8---8---8---8---8----------|---------------------------------|---------------------------------|--------------------------5-----| 
    .   .   .   .   .   .   .   .     .   .   .   .   .   .                         ^Note: This is a VERY quick slide within one beat. 

G|---------------------------------|---------------------------------|---------------------------------|---------------------------------| 
D|---------------------------------|------------------17~------------|------------------15-------------|---------------------------------| 
A|--------------15--15-------------|--------------17~-------------17-|--------------15--------------15-|----------------------2---2---3--| 
E|--11-----------------------------|--15-----------------------------|--11-----------------------------|--15--15--15--15--15-------------| 


Chorus 1: 

G|---------------------------------|---------------------------------|---------------------------------|---------------------------------| 
D|---------------------------------|---------------------------------|---------------------------------|---------------------------------| 
A|--3---3---3---3---3--------------|---------------------------------|---------------------------------|----------------------2---2---3--| 
E|----------------------0---0---1--|--1---1---1---1---1---3---3---5--|--5---5---5---5---5---0---0---1--|--1---1---1---1---1--------------| 

G|---------------------------------|---------------------------------|---------------------------------|---------------------------------| 
D|---------------------------------|---------------------------------|---------------------------------|---------------------------------| 
A|--3---3---3---3---3--------------|---------------------------------|---------------------------------|----------------------2---2---3--| 
E|----------------------0---0---1--|--1---1---1---1---1---3---3---5--|--5---5---5---5---5---0---0---1--|--1---1---1---1---1--------------| 

G|---------------------------------|---------------------------------|---------------------------------|---------------------------------| 
D|---------------------------------|---------------------------------|---------------------------------|---------------------------------| 
A|--3---3---3---3---3--------------|---------------------------------|---------------------------------|----------------------2---2---3--| 
E|----------------------0---0---1--|--1---1---1---1---1---3---3---5--|--5---5---5---5---5---0---0---1--|--1---1---1---1---1--------------| 


VERSE 2: 

G|---------------------------------|---------------------------------|---------------------------------|---------------------------------| 
D|--3------------------------------|---------------------------------|---------------------------------|---------------------------------| 
A|---------------------------------|---------------------------------|---------------------------------|----------------------2---2---3--| 
E|----------------------0---0---1--|--1-------------------3---3---5--|--5-------------------0---0---1--|--1------------------------------| 

G|---------------------------------|---------------------------------|---------------------------------|---------------------------------| 
D|--3------------------------------|---------------------------------|---------------------------------|---------------------------------| 
A|---------------------------------|---------------------------------|---------------------------------|----------------------2---2---3--| 
E|----------------------0---0---1--|--1-------------------3---3---5--|--5-------------------0---0---1--|--1------------------------------| 


PRE-Chorus: 

G|---------------------------------|---------------------------------|---------------------------------|---------------------------------| 
D|---------------------------------|---------------------------------|---------------------------------|---------------------------------| 
A|--3---3---3---3---3---7---7---8--|--8---8---8---8---8---10--10--12-|--12--12--12--12--12--7---7---8--|--8---8---8---8---8--------------| 
E|---------------------------------|---------------------------------|---------------------------------|----------------------7---7---8--| 
    .   .   .   .   .   .   .   .     .   .   .   .   .   .   .   .     .   .   .   .   .   .   .   .     .   .   .   .   .   .   .   . 

G|---------------------------------|---------------------------------|---------------------------------|---------------------------------| 
D|---------------------------------|---------------------------------|---------------------------------|---------------------------------| 
A|--------------------------7---7--|--8---8---8---8---8---10--10-/12-|--12---------9/10-10----------5--|--9---------------5-------------| 
E|--8---8---8---8---8---8----------|---------------------------------|---------------------------------|--------------------------5-----| 
    .   .   .   .   .   .   .   .     .   .   .   .   .   .                         ^Note: This is a VERY quick slide within one beat. 

G|---------------------------------|---------------------------------|---------------------------------|---------------------------------| 
D|---------------------------------|------------------17~------------|------------------15-------------|---------------------------------| 
A|--------------15--15-------------|--------------17~-------------17-|--------------15--------------15-|----------------------2---2---3--| 
E|--11-----------------------------|--15-----------------------------|--11-----------------------------|--15--15--15--15--15-------------| 


Chorus 2: 

G|---------------------------------|---------------------------------|---------------------------------|---------------------------------| 
D|---------------------------------|---------------------------------|---------------------------------|---------------------------------| 
A|--3---3---3---3---3--------------|---------------------------------|---------------------------------|----------------------2---2---3--| 
E|----------------------0---0---1--|--1---1---1---1---1---3---3---5--|--5---5---5---5---5---0---0---1--|--1---1---1---1---1--------------| 

G|---------------------------------|---------------------------------|---------------------------------|---------------------------------| 
D|---------------------------------|---------------------------------|---------------------------------|---------------------------------| 
A|--3---3---3---3---3--------------|---------------------------------|---------------------------------|----------------------2---2---3--| 
E|----------------------0---0---1--|--1---1---1---1---1---3---3---5--|--5---5---5---5---5---0---0---1--|--1---1---1---1---1--------------| 

G|---------------------------------|---------------------------------|---------------------------------|---------------------------------| 
D|---------------------------------|---------------------------------|---------------------------------|---------------------------------| 
A|--3---3---3---3---3--------------|---------------------------------|---------------------------------|---------------------------------| 
E|----------------------0---0---1--|--1---1---1---1---1---3---3---5--|--5---5---5---5---5---0---0---1--|--1---1---1---1---1--------------| 


BRIDGE: 

G|---------------------------------|---------------------------------|---------------------------------|---------------------------------| 
D|---------------------------------|---------------------------------|---------------------------------|---------------------------------| 
A|---------------------------------|---------------------------------|---------------------------------|--2-----2~--------3~-------------| 
E|--1~-----------------------------|--3-----3~-----------------------|--5-----5~-----------------------|---------------------------------| 

G|---------------------------------|---------------------------------|---------------------------------|---------------------------------| 
D|---------------------------------|---------------------------------|---------------------------------|---------------------------------| 
A|------------------3~-------------|------------------2~-------------|---------------------------------|----------------------4---4---5--| 
E|--1-----1~-----------------------|--3-----3~-----------------------|--3---3---3---3---3---3---3---3--|--5---5---5---5---5--------------| 


Chorus 3 (KEY CHANGE TO D): 

G|---------------------------------|---------------------------------|---------------------------------|---------------------------------| 
D|---------------------------------|---------------------------------|---------------------------------|---------------------------------| 
A|--5---5---5---5---5--------------|---------------------------------|---------------------------------|----------------------4---4---5--| 
E|----------------------2---2---3--|--3---3---3---3---3---5---5---7--|--7---7---7---7---7---2---2---3--|--3---3---3---3---3--------------| 

G|---------------------------------|---------------------------------|---------------------------------|---------------------------------| 
D|---------------------------------|---------------------------------|---------------------------------|---------------------------------| 
A|--5---5---5---5---5--------------|---------------------------------|---------------------------------|----------------------2---2---3--| 
E|----------------------2---2---3--|--3---3---3---3---3---5---5---7--|--7---7---7---7---7---2---2---3--|--3-------3-------3--------------| 


SOLO (Chorus 4 - KEY CHANGE BACK TO C): 

G|---------------------------------|---------------------------------|---------------------------------|---------------------------------| 
D|---------------------------------|---------------------------------|---------------------------------|---------------------------------| 
A|--3---3---3---3---3--------------|---------------------------------|---------------------------------|----------------------2---2---3--| 
E|----------------------0---0---1--|--1---1---1---1---1---3---3---5--|--5---5---5---5---5---0---0---1--|--1---1---1---1---1--------------| 

G|---------------------------------|---------------------------------|---------------------------------|---------------------------------| 
D|---------------------------------|---------------------------------|---------------------------------|---------------------------------| 
A|--3---3---3---3---3--------------|---------------------------------|---------------------------------|----------------------2---2---3~-| 
E|----------------------0---0---1--|--1---1---1---1---1---3---3---5--|--5---5---5---5---5---0---0---1--|--1---1---1---1---1--------------| 
	  

No existe una video leccione para esta canción

request
LosAcordes
Buscar
auto avanzar rasgueos aumentar disminuir cambiar color esconder acordes gráficos
losacordes exhibir acordes losacordes youTube video losacordes ocultar tabs losacordes ir hacia arriba losacordes