The Cranberries

Início > The Cranbe... > acordes

Empty Tablatura Bajo

The Cranberries

Dificultad:Ningún gradoNingún grado

tuner correct add songbook print version text version salvar en e-mail
acordesukuleletablaturabaixobateríaarmónicaflautacavacopiano Guitar Pro
acordes

Empty

Áño: 1994 - Álbum: No Need to Argue

	  

The 

No Need To Argue

tabbed by Círdan Sáralondë ([email protected])

00:33
G||---------------------------------------------------------|
D||---------------------------------------------------------|
A||-7-----------------------------3/7-----------------------|
E||---------7-------5-------5---------------7-------5-----5-|

00:51
G||---------------------------|x2
D||---------------------------|
A||-7-------------------------|
E||---------7-------5-------5-|

01:07
G||---------------------------------------------------------|
D||---------------------------------------------------------|
A||-7-----------------------------3/7-----------------------|
E||---------7-------5-------5---------------7-------5-----5-|

01:24
G||---------------------------|x14
D||---------------------------|
A||-0-------3-----------------|
E||-----------------3-------0-|

	  

No existe una video leccione para esta canción

request
LosAcordes
Buscar
auto avanzar rasgueos aumentar disminuir cambiar color esconder acordes gráficos
losacordes exhibir acordes losacordes youTube video losacordes ocultar tabs losacordes ir hacia arriba losacordes