The Beatles

Início > The Beatle... > acordes

Penny Lane Tablatura Bajo

The Beatles

Dificultad:ExpertoExperto

[email protected]

tuner correct add songbook print version text version salvar en e-mail
acordesukuleletablaturabaixobateríaarmônicaflautacavacopiano Guitar Pro
acordes

Penny Lane

Áño: 1996 - Álbum: Anthology 2

(John Lennon / Mc Cartney)

Tono:  G
	   A 
|------16------16--|--16---15---13---11--|--9--------11---11------|-----------------| 
|--13------16------|---------------------|------11-------------8--|--9---8---6---4--| 
|------------------|---------------------|------------------------|-----------------| 
|------------------|---------------------|------------------------|-----------------| 
 
                                                      B 
|-----|-----|-----|----------------|----------------|-----------------|----------------3--| 
|-----|--6--|--5--|--4---4------4--|--4---4------4--|--9---8---6---4--|--2------4---4-----| 
|--2--|-----|-----|----------4-----|----------4-----|-----------------|------4------------| 
|-----|-----|-----|----------------|----------------|-----------------|-------------------| 
 
|--4---3----------|--4--|-----|-----|---------6-------------|-----------| 
|----------6---4--|-----|--6--|--5--|--4---4----------4-----|--2--------| 
|-----------------|-----|-----|-----|-------------6------4--|-----2-----| 
|-----------------|-----|-----|-----|-----------------------|--------O--| 
 
   C 
|----------------|-------------------|-------------------|----------------|-------------------| 
|*---------------|-------------------|-------------4--6--|--7---7---7-----|-------------------| 
|*---------------|--4---4------2--4--|--5---5---7--------|-------------5--|-------------4-----| 
|--5---5---O--5--|----------5--------|-------------------|----------------|--5---5---7-----5--| 
 
                                                        D 
|-------------------|------------------|-------------|--------------|--------------3--| 
|-------------------|------------------|-------------|--9--8--6--4--|--2-----4--4-----| 
|--4---4---5--7--4--|--5---5--5-----5--|--4---1------|--------------|-----4-----------| 
|-------------------|------------5-----|----------2--|--------------|-----------------| 
 
                                                                         E 
                                                      1____________________________________ 
|--4---3----------|--4--|-----|-----|----------------|----------------|--------------------| 
|----------6---4--|-----|--6--|--5--|--4---4------4--|--4---4------4--|--9---8---6---4-----| 
|-----------------|-----|-----|-----|----------4-----|----------4-----|-----------------6--| 
|-----------------|-----|-----|-----|----------------|----------------|--------------------| 
 
_____________________________________________________________________________ 
|-----------------|-----------------|----------------------|-----------------| 
|--2-------4---4--|--9---8---6---4--|--9---9-----9---9-----|--6---6---6---6--| 
|------4----------|-----------------|---------9---------9--|-----------------| 
|-----------------|-----------------|----------------------|-----------------| 
 
____________________________________________________________ 2_______________ 
|--------------------|--------------------|-----------------|----------------|-----6--3--6-----| 
|--5---5---5---5-----|--4---4------4---4--|--2-------------*|--4---4------4--|--4-----------4--| 
|-----------------5--|---------4----------|-----4--2-------*|----------4-----|-----------------| 
|--------------------|--------------------|-----------4--O--|----------------|-----------------| 
 
   F 
|----------------|---------------------|----------------|-----------------------| 
|--9---9------9--|---------------------|----------------|--------6--8--9--------| 
|----------9-----|--6---6--6-----6-----|--7------7------|--7--9-----------9--7--| 
|----------------|------------7-----7--|------7------7--|-----------------------| 
 
|------------------|---------------------|-------------------|-----------------|-----| 
|------------------|---------------------|----------------8--|--9-----9--------|-----| 
|------------------|--6---6--6-----6-----|--7---7--7--9------|--------------9--|--2--| 
|--7---7--7--7--7--|------------7-----7--|-------------------|-----------------|-----| 
 
how to play: A B C D E C D B C F 
 

	  

No existe una video leccione para esta canción

request
Aumentar uno tonoAumentar uno tono
Aumentar uno semi-tonoAumentar uno semi-tono
Disminuir uno semi-tonoDisminuir uno semi-tono
Disminuir uno tonoDisminuir uno semi-tono
LosAcordes
Buscar
auto avanzar rasgueos aumentar disminuir cambiar color esconder acordes gráficos
losacordes exhibir acordes losacordes youTube video losacordes ocultar tabs losacordes ir hacia arriba losacordes