The Beatles

Início > The Beatle... > acordes

Ob-La-Di Ob-La-Da Tablatura Bajo

The Beatles

Dificultad:IntermedioIntermedio

moreira_victor

tuner correct add songbook print version text version salvar en e-mail
acordesukuleletablaturabaixobateríaarmónicaflautacavacopiano Guitar Pro
acordes

Ob-La-Di Ob-La-Da

	  afinação padrão 

Intro: 

 somente guitarra 


   1 & 2 & 3 & 4 & 
G|------------------| x2 
D|-----0-3-----0-3--| 
A|-1-------1--------| 
E|------------------| 

Verse 

G|------------------| 
D|-----0-3-----0-3--| 
A|-1-------1--------| 
E|------------------| 

G|------------------| x2 
D|------------------| 
A|----0-3------0-3--| 
E|-1-------1--------| 

G|------------------| x2 
D|-----0-3-----0-3--| 
A|-1-------1--------| 
E|------------------| 

G|-----0-3-----0-3--| 
D|-1-------1--------| 
A|------------------| 
E|------------------| 

G|------------------| 
D|-----0-3----------| 
A|-1-----------0-3--| 
E|---------1--------| 

G|------------------| 
D|-----0-3-----0-3--| 
A|-1-------1--------| 
E|------------------| 

Chorus x2 

G|------------------| 
D|-----0-3-----0-3--| 
A|-1-------1--------| 
E|------------------| 

   1 & 2 & 3 & 4 & 
G|------------------| 
D|-3---0-3-5--------| 
A|-------------5-3--| 
E|------------------| 

G|------------------| 
D|-----0-3----------| 
A|-1-----------0-3--| 
E|---------1--------| 

G|------------------| 
D|-----0-3-----0-3--| 
A|-1-------1--------| 
E|------------------| 

Verse 

G|------------------| 
D|-----0-3-----0-3--| 
A|-1-------1--------| 
E|------------------| 

G|------------------| x2 
D|------------------| 
A|----0-3------0-3--| 
E|-1-------1--------| 

G|------------------| x2 
D|-----0-3-----0-3--| 
A|-1-------1--------| 
E|------------------| 

G|-----0-3-----0-3--| 
D|-1-------1--------| 
A|------------------| 
E|------------------| 

G|------------------| 
D|-----0-3----------| 
A|-1-----------0-3--| 
E|---------1--------| 

G|------------------| 
D|-----0-3-----0-3--| 
A|-1-------1--------| 
E|------------------| 

Chorus x2 

G|------------------| 
D|-----0-3-----0-3--| 
A|-1-------1--------| 
E|------------------| 

G|------------------| 
D|-3---0-3-5--------| 
A|-------------5-3--| 
E|------------------| 

G|------------------| 
D|-----0-3----------| 
A|-1-----------0-3--| 
E|---------1--------| 

G|------------------| 
D|-----0-3----------| 
A|-1-------1-3-5-6--| 
E|------------------| 

Bridge 
   1 & 2 & 3 & 4 & 
G|------------------| 
D|------------------| 
A|-6---6---6---6----| 
E|---x---0---x---0--| 

G|------------------| 
D|------------------| 
A|-6---6---6---7-8--| 
E|---x---0---x------| 

   1e&a2e&a3e&a4e&a 
G|------------------| 
D|------------------| 
A|-------8-------8--| 
E|-6--66---6--66----| 

G|------------------| 
D|------------------| 
A|-------8-----5-6--| 
E|-6--66---6-8------| 

G|------------------| 
D|------------------| 
A|-6---6---6---6----| 
E|---x---0---x---0--| 

G|------------------| 
D|------------------| 
A|-6---6---6---7-8--| 
E|---x---0---x------| 

   1 & 2 & 3 & 4 & 
G|------------------| 
D|------------------| 
A|---8---8---8---8--| 
E|------------------| 

G|------------------| 
D|------------------| 
A|---8---8---8-5-3--| 
E|------------------| 

Verse 

G|------------------| 
D|-----0-3-----0-3--| 
A|-1-------1--------| 
E|------------------| 

G|------------------| x2 
D|------------------| 
A|----0-3------0-3--| 
E|-1-------1--------| 

G|------------------| x2 
D|-----0-3-----0-3--| 
A|-1-------1--------| 
E|------------------| 

G|-----0-3-----0-3--| 
D|-1-------1--------| 
A|------------------| 
E|------------------| 

G|------------------| 
D|-----0-3----------| 
A|-1-----------0-3--| 
E|---------1--------| 

G|------------------| 
D|-----0-3-----0-3--| 
A|-1-------1--------| 
E|------------------| 

Chorus x2 

G|------------------| 
D|-----0-3-----0-3--| 
A|-1-------1--------| 
E|------------------| 

G|------------------| 
D|-3---0-3-5--------| 
A|-------------5-3--| 
E|------------------| 

G|------------------| 
D|-----0-3----------| 
A|-1-----------0-3--| 
E|---------1--------| 

G|------------------| 
D|-----0-3----------| 
A|-1-------1-3-5-6--| 
E|------------------| 

Bridge 

G|------------------| 
D|------------------| 
A|-6---6---6---6----| 
E|---x---0---x---0--| 

G|------------------| 
D|------------------| 
A|-6---6---6---7-8--| 
E|---x---0---x------| 

G|------------------| 
D|------------------| 
A|-------8-------8--| 
E|-6--66---6--66----| 

G|------------------| 
D|------------------| 
A|-------8-----5-6--| 
E|-6--66---6-8------| 

G|------------------| 
D|------------------| 
A|-6---6---6---6----| 
E|---x---0---x---0--| 

G|------------------| 
D|------------------| 
A|-6---6---6---7-8--| 
E|---x---0---x------| 

G|------------------| 
D|------------------| 
A|---8---8---8---8--| 
E|------------------| 

G|------------------| 
D|------------------| 
A|---8---8---8-5-3--| 
E|------------------| 

Verse 

G|------------------| 
D|-----0-3-----0-3--| 
A|-1-------1--------| 
E|------------------| 

G|------------------| x2 
D|------------------| 
A|----0-3------0-3--| 
E|-1-------1--------| 

G|------------------| x2 
D|-----0-3-----0-3--| 
A|-1-------1--------| 
E|------------------| 

G|-----0-3-----0-3--| 
D|-1-------1--------| 
A|------------------| 
E|------------------| 

G|------------------| 
D|-----0-3----------| 
A|-1-----------0-3--| 
E|---------1--------| 

G|------------------| 
D|-----0-3-----0-3--| 
A|-1-------1--------| 
E|------------------| 

Chorus x2 

G|------------------| 
D|-----0-3-----0-3--| 
A|-1-------1--------| 
E|------------------| 

G|------------------| 
D|-3---0-3-5--------| 
A|-------------5-3--| 
E|------------------| 

G|------------------| 
D|-----0-3----------| 
A|-1-----------0-3--| 
E|---------1--------| 

1st time only 
G|------------------| 
D|-----0-3----------| 
A|-1-------1-3-5-6--| 
E|------------------| 

2nd time only 
   1 & 2 & 3 & 4 & 
G|------------------| 
D|-5-------5--------| 
A|-----5-------5----| 
E|------------------| 

G|------------------| 
D|-5-------5--------| 
A|-----5-------5----| 
E|------------------| 
   1 & 2 & 3 & 4 & 
G|------------------|| 
D|-3-1-0------------|| 
A|-------3-1--------|| 
E|------------------|| 
	  

No existe una video leccione para esta canción

request
LosAcordes
Buscar
auto avanzar rasgueos aumentar disminuir cambiar color esconder acordes gráficos
losacordes exhibir acordes losacordes youTube video losacordes ocultar tabs losacordes ir hacia arriba losacordes