Suicide Machines

Início > Suicide Ma... > acordes

Your silence Tablatura Bajo

Suicide Machines

Dificultad:Ningún gradoNingún grado

ksssb

tuner correct add songbook print version text version salvar en e-mail
acordesukuleletablaturabaixobateríaarmónicaflautacavacopiano Guitar Pro
acordes

Your silence

	  intro 
G------------------------- 
D------------------------- 
A------------------------- 
E-5-----555555-555555----- 
 
intro 2 
G------------------------- 
D-----5-----5------------- 
A---7---75---5------------(x2) 
E-5--------8---85--------- 
 
riff 1(é mais facil fazer na corda solta) 
G--------------------------------- 
D--------------------------------- 
A-000000005555555500000000-6-5-3-0(x4) 
E--------------------------------- 
 
Refrão 
G------------------------------ 
D------------------------------ 
A-5-5-555-6-5-3-0--------------(x1) 
E------------------------------ 
 
Riff1 (x4) 
 
Refrão(x1) 
Refrão2(depois do Refrão quando ele fica repetindo"equals your death") 
G--------------------------------- 
D--------------------------------- 
A-----------6-5-3-0---------------(x7) 
E-6-5-3-0------------------------- 
 
riff2 
G------------------------------------------------ 
D------------------------------------------------ 
A----------555555555--------66666666-------------(x9) 
E-555555555---------66666666--------------------- 
 
riff 1(x4) 
Refrão(x1) 
	  

No existe una video leccione para esta canción

request
LosAcordes
Buscar
auto avanzar rasgueos aumentar disminuir cambiar color esconder acordes gráficos
losacordes exhibir acordes losacordes youTube video losacordes ocultar tabs losacordes ir hacia arriba losacordes