Suicide Machines

Início > Suicide Ma... > acordes

New girl Tablatura Bajo

Suicide Machines

Dificultad:Ningún gradoNingún grado

ksssb

tuner correct add songbook print version text version salvar en e-mail
acordesukuleletablaturabaixobateríaarmónicaflautacavacopiano Guitar Pro
acordes

New girl

	   intro 
G-------------------------------- 
D-------------------------------- 
A-10-10-8-8----------------------(x3) 
E-----------8-888---------------- 
 riff 1 
G-------------------------------- 
D-------------------------------- 
A-10---7-8-7---7-8-10-8-7--------(x7) 
E----8-------8------------------- 
Refrão
G-------------------------------- 
D-------------------------------- 
A-10-10-8-8----------------------(x4) 
E-----------8-888---------------- 
intaum vc faiz u riff 1 mais 8 vezes ,  
i depois u Refrão(x4) 
i u riff 1 mais 12 vezes( eh confuso mais eh assim) 
u Refrão 8 vezes 
i finalmente u riff 2 
G-------------------------------- 
D-------------------------------- 
A-------9-9-9-9------------------(x4) 
E-7-7-9-------------------------- 
	  

No existe una video leccione para esta canción

request
LosAcordes
Buscar
auto avanzar rasgueos aumentar disminuir cambiar color esconder acordes gráficos
losacordes exhibir acordes losacordes youTube video losacordes ocultar tabs losacordes ir hacia arriba losacordes