Suicidal Tendencies

Início > Suicidal T... > acordes

Nothing To Lose Tablatura Bajo

Suicidal Tendencies

Dificultad:Ningún gradoNingún grado

aleffederico

tuner correct add songbook print version text version salvar en e-mail
acordesukuleletablaturabaixobateríaarmónicaflautacavacopiano Guitar Pro
acordes

Nothing To Lose

Tono:  B
	  
G|---R---|---R---|---R---|--------| 
D|---E---|---E---|---E---|--------| 
A|---S---|---S---|---S---|--------| 2X 
E|---T---|---T---|---T---|------7\| 

-0.15- verse 1 
G|---------------|------------| 
D|---------------|------------| 
A|-3---3---3-5-6-|-666666-6-6-| 8X 
E|---3---3-------|------------| 

-0.39- 
G|-------------|----------------| 
D|-------------|----------------| 
A|---6-6---6-6-|---6-5-5555-666-| 4X 
E|-5-----5-----|-5--------------| 

-0.50- Chorus 
G|---------------|---------------|---------------|---------------| 
D|---------------|---------------|---------------|---------------| 
A|-----6-6666-666|-----5-5555-555|-----6-6666-666|-6-6-5-5555-555| 4X 
E|-5-5-----------|-5-5-----------|-5-5-----------|---------------| 

G|---------|---------| 
D|---------|---------| 
A|---------|---------| On 5 string bass you can play the 6th fret on B string  
E|-6-6-6-6-|-1-1-1-1-| instead of 1st fret on E string 

G|---R---|--------| 
D|---E---|--------| 
A|---S---|--------| 2X 
E|---T---|------7\| 

-1.23-Guitar solo 
G|---------------|------------| 
D|---------------|------------| 
A|-3---3---3-5-6-|-666666-6-6-| 4X 
E|---3---3-------|------------| 

G|---------------|--------------| 
D|---------------|--------------| 
A|-3---3---3-5-6-|-666666666666-| 4X 
E|---3---3-------|--------------| 

-1.46-  
G|-------------|----------------| 
D|-------------|----------------| 
A|---6-6---6-6-|---6-5-5555-555-| 8X 
E|-5-----5-----|-5--------------| 

-2.09- Chorus 
G|---------------|---------------|---------------|---------------| 
D|---------------|---------------|---------------|---------------| 
A|-----6-6666-666|-----5-5555-555|-----6-6666-666|-6-6-5-5555-555| 4X 
E|-5-5-----------|-5-5-----------|-5-5-----------|---------------| 

G|---------|---------| 
D|---------|---------| 
A|---------|---------| On 5 string bass you can play the 6th fret on B string  
E|-6-6-6-6-|-1-1-1-1-| instead of 1st fret on E string 

G|---R---|--------| 
D|---E---|--------| 
A|---S---|--------| 2X 
E|---T---|------7\| 

-2.42- verse 2 
G|---------------|------------| 
D|---------------|------------| 
A|-3---3---3-5-6-|-666666-6-6-| 4X 
E|---3---3-------|------------| 

G|---------|---------| 
D|---------|---------| 
A|---------|---------| On 5 string bass you can play the 6th fret on B string  
E|-6-6-6-6-|-1-1-1-1-| instead of 1st fret on E string 

/ = slide-up 
\ = slide-down 
	  

No existe una video leccione para esta canción

request
Aumentar uno tonoAumentar uno tono
Aumentar uno semi-tonoAumentar uno semi-tono
Disminuir uno semi-tonoDisminuir uno semi-tono
Disminuir uno tonoDisminuir uno semi-tono
LosAcordes
Buscar
auto avanzar rasgueos aumentar disminuir cambiar color esconder acordes gráficos
losacordes exhibir acordes losacordes youTube video losacordes ocultar tabs losacordes ir hacia arriba losacordes