Spandau Ballet

Início > Spandau Ba... > acordes

Only when you leave Tablatura Bajo

Spandau Ballet

Dificultad:Ningún gradoNingún grado

robepoiel

tuner correct add songbook print version text version salvar en e-mail
acordesukuleletablaturabaixobateríaarmónicaflautacavacopiano Guitar Pro
acordes

Only when you leave

Áño: 1984 - Álbum: Live at Nec

Tono:  F
	  
Main Riff 
G|------|--------|--------|-------------------3-------|------------------------|-------3----------| 
D|------|--------|--------|-------0---3---5-------5---|-------3---3--------0---|-1-----------1----| 
A|------|--------|--------|---------------------------|----------------3-------|------------------| 
E|------|--------|--------|-3-------------------------|-1----------------------|------------------| 

G|-----------------|---------------------|---------------------------|-------------------3-------| 
D|-0-----0----0----|---------------------|-------------------0-------|-------0---3---5-------5---| 
A|-----------------|-3-----1---3-----1---|-3-----1---3----3----------|---------------------------| 
E|-----------------|---------------------|-----------------------1---|-3-------------------------| 

G|------------------------|-------3----------|-----------------|---------------------| 
D|-------3---3--------0---|-1-----------1----|-0-----0----0----|---------------------| 
A|----------------3-------|------------------|-----------------|-3-----1---3-----1---| 
E|-1----------------------|------------------|-----------------|---------------------| 

G|---------------------------|-------------------3-------|------------------------| 
D|-------------------0-------|-------0---3---5-------5---|-------3---3--------0---| 
A|-3-----1---3----3----------|---------------------------|----------------3-------| 
E|-----------------------1---|-3-------------------------|-1----------------------| 

G|-------3----------|-----------------|---------------------|---------------------------| 
D|-1-----------1----|-0-----0----0----|---------------------|-------------------0-------| 
A|------------------|-----------------|-3-----1---3-----1---|-3-----1---3----3----------| 
E|------------------|-----------------|---------------------|-----------------------1---| 

G|-------------------3-------|------------------------|-------3----------|-----------------| 
D|-------0---3---5-------5---|-------3---3--------0---|-1-----------1----|-0-----0----0----| 
A|---------------------------|----------------3-------|------------------|-----------------| 
E|-3-------------------------|-1----------------------|------------------|-----------------| 

G|---------------------|---------------------------|---------------------|------------------------| 
D|---------------------|---------------------------|---------------------|-3-----3---3-------3----| 
A|-3-----1---3-----1---|-3-----1---3----3----------|-1-----1---1-----1---|---------------1--------| 
E|---------------------|-------------------1---3---|---------------------|------------------------| 

G|-3-----3-------3-----------|-----------------|------------------------|---------------------| 
D|-------------------0---3---|-1-----1---1-----|-1-------1---3-----1----|-0-----0---0-----0---| 
A|-----------1---------------|-----------------|-----1------------------|---------------------| 
E|---------------------------|-----------------|------------------------|---------------------| 

G|---------------------|---------------------|---------------------------------|-------------------3-------| 
D|---------------------|-0---------0---------|-0---5---4---0-------0-------0---|-------0---3---5-------5---| 
A|-3-----3---3-----3---|-------3---------3---|-----------------3-------3-------|---------------------------| 
E|---------------------|---------------------|---------------------------------|-3-------------------------| 

G|------------------------|-------3----------|---------------------|---------------------| 
D|-------3---3--------0---|-1-----------1----|-0-----0---0----0----|---------------------| 
A|----------------3-------|------------------|---------------------|-3-----1---3-----1---| 
E|-1----------------------|------------------|---------------------|---------------------| 

G|---------------------|---------------------|---------------------------------|-------------------3-------| 
D|---------------------|-0---------0---------|-0---5---4---0-------0-------0---|-------0---3---5-------5---| 
A|-3-----1---3----3----|-------3---------3---|-----------------3-------3-------|---------------------------| 
E|---------------------|---------------------|---------------------------------|-3-------------------------| 

G|------------------------|-------3----------|---------------------|---------------------| 
D|-------3---3--------0---|-1-----------1----|-0-----0---0----0----|---------------------| 
A|----------------3-------|------------------|---------------------|-3-----1---3-----1---| 
E|-1----------------------|------------------|---------------------|---------------------| 

G|---------------------|---------------------|---------------------------------|-------------------3-------| 
D|---------------------|-0---------0---------|-0---5---4---0-------0-------0---|-------0---3---5-------5---| 
A|-3-----1---3----3----|-------3---------3---|-----------------3-------3-------|---------------------------| 
E|---------------------|---------------------|---------------------------------|-3-------------------------| 

G|------------------------|-------3----------|-----------------|---------------------| 
D|-------3---3--------0---|-1-----------1----|-0-----0----0----|---------------------| 
A|----------------3-------|------------------|-----------------|-3-----1---3-----1---| 
E|-1----------------------|------------------|-----------------|---------------------| 

G|---------------------------|-------------------3-------|------------------------| 
D|-------------------0-------|-------0---3---5-------5---|-------3---3--------0---| 
A|-3-----1---3----3----------|---------------------------|----------------3-------| 
E|-----------------------1---|-3-------------------------|-1----------------------| 

G|-------3----------|-----------------|---------------------|---------------------------| 
D|-1-----------1----|-0-----0----0----|---------------------|-------------------0-------| 
A|------------------|-----------------|-3-----1---3-----1---|-3-----1---3----3----------| 
E|------------------|-----------------|---------------------|-----------------------1---| 

G|-------------------3-------|------------------------|-------3----------|-----------------| 
D|-------0---3---5-------5---|-------3---3--------0---|-1-----------1----|-0-----0----0----| 
A|---------------------------|----------------3-------|------------------|-----------------| 
E|-3-------------------------|-1----------------------|------------------|-----------------| 

G|---------------------|---------------------------|---------------------|------------------------| 
D|---------------------|---------------------------|---------------------|-3-----3---3-------3----| 
A|-3-----1---3-----1---|-3-----1---3----3----------|-1-----1---1-----1---|---------------1--------| 
E|---------------------|-------------------1---3---|---------------------|------------------------| 

G|-3-----3-------3-----------|-----------------|------------------------|---------------------| 
D|-------------------0---3---|-1-----1---1-----|-1-------1---3-----1----|-0-----0---0-----0---| 
A|-----------1---------------|-----------------|-----1------------------|---------------------| 
E|---------------------------|-----------------|------------------------|---------------------| 

G|---------------------|---------------------|---------------------------------|-------------------3-------| 
D|---------------------|-0---------0---------|-0---5---4---0-------0-------0---|-------0---3---5-------5---| 
A|-3-----3---3-----3---|-------3---------3---|-----------------3-------3-------|---------------------------| 
E|---------------------|---------------------|---------------------------------|-3-------------------------| 

G|------------------------|-------3----------|---------------------|---------------------| 
D|-------3---3--------0---|-1-----------1----|-0-----0---0----0----|---------------------| 
A|----------------3-------|------------------|---------------------|-3-----1---3-----1---| 
E|-1----------------------|------------------|---------------------|---------------------| 

G|---------------------|---------------------|---------------------------------|-------------------3-------| 
D|---------------------|-0---------0---------|-0---5---4---0-------0-------0---|-------0---3---5-------5---| 
A|-3-----1---3----3----|-------3---------3---|-----------------3-------3-------|---------------------------| 
E|---------------------|---------------------|---------------------------------|-3-------------------------| 

G|------------------------|-------3----------|---------------------|---------------------| 
D|-------3---3--------0---|-1-----------1----|-0-----0---0----0----|---------------------| 
A|----------------3-------|------------------|---------------------|-3-----1---3-----1---| 
E|-1----------------------|------------------|---------------------|---------------------| 

G|---------------------|---------------------|---------------------------------|-------------------3-------| 
D|---------------------|-0---------0---------|-0---5---4---0-------0-------0---|-------0---3---5-------5---| 
A|-3-----1---3----3----|-------3---------3---|-----------------3-------3-------|---------------------------| 
E|---------------------|---------------------|---------------------------------|-3-------------------------| 

G|------------------------|-------3----------|-----------------|---------------------| 
D|-------3---3--------0---|-1-----------1----|-0-----0----0----|---------------------| 
A|----------------3-------|------------------|-----------------|-3-----1---3-----1---| 
E|-1----------------------|------------------|-----------------|---------------------| 

G|---------------------------|-------------------3-------|------------------------| 
D|-------------------0-------|-------0---3---5-------5---|-------3---3--------0---| 
A|-3-----1---3----3----------|---------------------------|----------------3-------| 
E|-----------------------1---|-3-------------------------|-1----------------------| 

G|-------3----------|-----------------|---------------------|---------------------------| 
D|-1-----------1----|-0-----0----0----|---------------------|-------------------0-------| 
A|------------------|-----------------|-3-----1---3-----1---|-3-----1---3----3----------| 
E|------------------|-----------------|---------------------|-----------------------1---| 

G|-----------------|-----------------|-----------------|-----------------|-----------------| 
D|-----------------|-----------------|-1-----1---1-----|-0-----0---0-----|-----------------| 
A|-----------------|-----------------|-----------------|-----------------|-3-----3---3-----| 
E|-3-----3---3-----|-1-----1---1-----|-----------------|-----------------|-----------------| 

G|-----------------|-----------------|-----------------|-----------------|-----------------| 
D|-----------------|-----------------|-----------------|-1-----1---1-----|-0-----0---0-----| 
A|-3-----3---3-----|-----------------|-----------------|-----------------|-----------------| 
E|-----------------|-3-----3---3-----|-1-----1---1-----|-----------------|-----------------| 

G|-----------------|-----------------|-----------------|-----------------|-----------------| 
D|-----------------|-----------------|-----------------|-----------------|-1-----1---1-----| 
A|-3-----3---3-----|-3-----3---3-----|-----------------|-----------------|-----------------| 
E|-----------------|-----------------|-3-----3---3-----|-1-----1---1-----|-----------------| 

G|-----------------|-----------------|-----------------|---------------------|------------------------| 
D|-0-----0---0-----|-----------------|-----------------|---------------------|-3-----3---3-------3----| 
A|-----------------|-3-----3---3-----|-3-----3---3-----|-1-----1---1-----1---|---------------1--------| 
E|-----------------|-----------------|-----------------|---------------------|------------------------| 

G|-3-----3-------3-----------|-----------------|------------------------|---------------------| 
D|-------------------0---3---|-1-----1---1-----|-1-------1---3-----1----|-0-----0---0-----0---| 
A|-----------1---------------|-----------------|-----1------------------|---------------------| 
E|---------------------------|-----------------|------------------------|---------------------| 

G|---------------------|---------------------|---------------------------------|-------------------3-------| 
D|---------------------|-0---------0---------|-0---5---4---0-------0-------0---|-------0---3---5-------5---| 
A|-3-----3---3-----3---|-------3---------3---|-----------------3-------3-------|---------------------------| 
E|---------------------|---------------------|---------------------------------|-3-------------------------| 

G|------------------------|-------3----------|---------------------|---------------------| 
D|-------3---3--------0---|-1-----------1----|-0-----0---0----0----|---------------------| 
A|----------------3-------|------------------|---------------------|-3-----1---3-----1---| 
E|-1----------------------|------------------|---------------------|---------------------| 

G|---------------------|---------------------|---------------------------------|-------------------3-------| 
D|---------------------|-0---------0---------|-0---5---4---0-------0-------0---|-------0---3---5-------5---| 
A|-3-----1---3----3----|-------3---------3---|-----------------3-------3-------|---------------------------| 
E|---------------------|---------------------|---------------------------------|-3-------------------------| 

G|------------------------|-------3----------|---------------------|---------------------| 
D|-------3---3--------0---|-1-----------1----|-0-----0---0----0----|---------------------| 
A|----------------3-------|------------------|---------------------|-3-----1---3-----1---| 
E|-1----------------------|------------------|---------------------|---------------------| 

G|---------------------|---------------------|---------------------------------|-------------------3-------| 
D|---------------------|-0---------0---------|-0---5---4---0-------0-------0---|-------0---3---5-------5---| 
A|-3-----1---3----3----|-------3---------3---|-----------------3-------3-------|---------------------------| 
E|---------------------|---------------------|---------------------------------|-3-------------------------| 

G|------------------------|-------3----------|-----------------|---------------------| 
D|-------3---3--------0---|-1-----------1----|-0-----0----0----|---------------------| 
A|----------------3-------|------------------|-----------------|-3-----1---3-----1---| 
E|-1----------------------|------------------|-----------------|---------------------| 

G|---------------------|---------------------|---------------------------------|-------------------3-------| 
D|---------------------|-0---------0---------|-0---5---4---0-------0-------0---|-------0---3---5-------5---| 
A|-3-----1---3----3----|-------3---------3---|-----------------3-------3-------|---------------------------| 
E|---------------------|---------------------|---------------------------------|-3-------------------------| 

G|------------------------|-------3----------|---------------------|--------|--------| 
D|-------3---3--------0---|-1-----------1----|-0-----0---0----0----|--------|--------| 
A|----------------3-------|------------------|---------------------|-3------|--------| 
E|-1----------------------|------------------|---------------------|--------|--------| 

Track 2: Bass 
G|------|--------|--------|---------------0---3---0---|------------------------|-------3----------| 
D|------|--------|--------|-------0---3---------------|-------3---3--------0---|-1-----------1----| 
A|------|--------|--------|---------------------------|----------------3-------|------------------| 
E|------|--------|--------|-3-------------------------|-1----------------------|------------------| 

G|-----------------|---------------------|---------------------------|---------------0---3---0---| 
D|-0-----0----0----|---------------------|-------------------0-------|-------0---3---------------| 
A|-----------------|-3-----1---3-----1---|-3-----1---3----3----------|---------------------------| 
E|-----------------|---------------------|-----------------------1---|-3-------------------------| 

G|------------------------|-------3----------|-----------------|---------------------| 
D|-------3---3--------0---|-1-----------1----|-0-----0----0----|---------------------| 
A|----------------3-------|------------------|-----------------|-3-----1---3-----1---| 
E|-1----------------------|------------------|-----------------|---------------------| 

G|---------------------------|---------------0---3---0---|------------------------| 
D|-------------------0-------|-------0---3---------------|-------3---3--------0---| 
A|-3-----1---3----3----------|---------------------------|----------------3-------| 
E|-----------------------1---|-3-------------------------|-1----------------------| 

G|-------3----------|-----------------|---------------------|---------------------------| 
D|-1-----------1----|-0-----0----0----|---------------------|-------------------0-------| 
A|------------------|-----------------|-3-----1---3-----1---|-3-----1---3----3----------| 
E|------------------|-----------------|---------------------|-----------------------1---| 

G|---------------0---3---0---|------------------------|-------3----------|-----------------| 
D|-------0---3---------------|-------3---3--------0---|-1-----------1----|-0-----0----0----| 
A|---------------------------|----------------3-------|------------------|-----------------| 
E|-3-------------------------|-1----------------------|------------------|-----------------| 

G|---------------------|---------------------------|---------------------|------------------------| 
D|---------------------|---------------------------|---------------------|-3-----3---3-------3----| 
A|-3-----1---3-----1---|-3-----1---3----3----------|-1-----1---1-----1---|---------------1--------| 
E|---------------------|-------------------1---3---|---------------------|------------------------| 

G|-3-----3-------3-----------|-----------------|------------------------|---------------------| 
D|-------------------0---3---|-1-----1---1-----|-1-------1---3-----1----|-0-----0---0-----0---| 
A|-----------1---------------|-----------------|-----1------------------|---------------------| 
E|---------------------------|-----------------|------------------------|---------------------| 

G|---------------------|---------------------|-----0---------------------------|---------------0---3---0---| 
D|---------------------|-0---------0---------|-0-------4---0-------0-------0---|-------0---3---------------| 
A|-3-----3---3-----3---|-------3---------3---|-----------------3-------3-------|---------------------------| 
E|---------------------|---------------------|---------------------------------|-3-------------------------| 

G|------------------------|-------3----------|---------------------|---------------------| 
D|-------3---3--------0---|-1-----------1----|-0-----0---0----0----|---------------------| 
A|----------------3-------|------------------|---------------------|-3-----1---3-----1---| 
E|-1----------------------|------------------|---------------------|---------------------| 

G|---------------------|---------------------|-----0---------------------------|---------------0---3---0---| 
D|---------------------|-0---------0---------|-0-------4---0-------0-------0---|-------0---3---------------| 
A|-3-----1---3----3----|-------3---------3---|-----------------3-------3-------|---------------------------| 
E|---------------------|---------------------|---------------------------------|-3-------------------------| 

G|------------------------|-------3----------|---------------------|---------------------| 
D|-------3---3--------0---|-1-----------1----|-0-----0---0----0----|---------------------| 
A|----------------3-------|------------------|---------------------|-3-----1---3-----1---| 
E|-1----------------------|------------------|---------------------|---------------------| 

G|---------------------|---------------------|-----0---------------------------|---------------0---3---0---| 
D|---------------------|-0---------0---------|-0-------4---0-------0-------0---|-------0---3---------------| 
A|-3-----1---3----3----|-------3---------3---|-----------------3-------3-------|---------------------------| 
E|---------------------|---------------------|---------------------------------|-3-------------------------| 

G|------------------------|-------3----------|-----------------|---------------------| 
D|-------3---3--------0---|-1-----------1----|-0-----0----0----|---------------------| 
A|----------------3-------|------------------|-----------------|-3-----1---3-----1---| 
E|-1----------------------|------------------|-----------------|---------------------| 

G|---------------------------|---------------0---3---0---|------------------------| 
D|-------------------0-------|-------0---3---------------|-------3---3--------0---| 
A|-3-----1---3----3----------|---------------------------|----------------3-------| 
E|-----------------------1---|-3-------------------------|-1----------------------| 

G|-------3----------|-----------------|---------------------|---------------------------| 
D|-1-----------1----|-0-----0----0----|---------------------|-------------------0-------| 
A|------------------|-----------------|-3-----1---3-----1---|-3-----1---3----3----------| 
E|------------------|-----------------|---------------------|-----------------------1---| 

G|---------------0---3---0---|------------------------|-------3----------|-----------------| 
D|-------0---3---------------|-------3---3--------0---|-1-----------1----|-0-----0----0----| 
A|---------------------------|----------------3-------|------------------|-----------------| 
E|-3-------------------------|-1----------------------|------------------|-----------------| 

G|---------------------|---------------------------|---------------------|------------------------| 
D|---------------------|---------------------------|---------------------|-3-----3---3-------3----| 
A|-3-----1---3-----1---|-3-----1---3----3----------|-1-----1---1-----1---|---------------1--------| 
E|---------------------|-------------------1---3---|---------------------|------------------------| 

G|-3-----3-------3-----------|-----------------|------------------------|---------------------| 
D|-------------------0---3---|-1-----1---1-----|-1-------1---3-----1----|-0-----0---0-----0---| 
A|-----------1---------------|-----------------|-----1------------------|---------------------| 
E|---------------------------|-----------------|------------------------|---------------------| 

G|---------------------|---------------------|-----0---------------------------|---------------0---3---0---| 
D|---------------------|-0---------0---------|-0-------4---0-------0-------0---|-------0---3---------------| 
A|-3-----3---3-----3---|-------3---------3---|-----------------3-------3-------|---------------------------| 
E|---------------------|---------------------|---------------------------------|-3-------------------------| 

G|------------------------|-------3----------|---------------------|---------------------| 
D|-------3---3--------0---|-1-----------1----|-0-----0---0----0----|---------------------| 
A|----------------3-------|------------------|---------------------|-3-----1---3-----1---| 
E|-1----------------------|------------------|---------------------|---------------------| 

G|---------------------|---------------------|-----0---------------------------|---------------0---3---0---| 
D|---------------------|-0---------0---------|-0-------4---0-------0-------0---|-------0---3---------------| 
A|-3-----1---3----3----|-------3---------3---|-----------------3-------3-------|---------------------------| 
E|---------------------|---------------------|---------------------------------|-3-------------------------| 

G|------------------------|-------3----------|---------------------|---------------------| 
D|-------3---3--------0---|-1-----------1----|-0-----0---0----0----|---------------------| 
A|----------------3-------|------------------|---------------------|-3-----1---3-----1---| 
E|-1----------------------|------------------|---------------------|---------------------| 

G|---------------------|---------------------|-----0---------------------------|---------------0---3---0---| 
D|---------------------|-0---------0---------|-0-------4---0-------0-------0---|-------0---3---------------| 
A|-3-----1---3----3----|-------3---------3---|-----------------3-------3-------|---------------------------| 
E|---------------------|---------------------|---------------------------------|-3-------------------------| 

G|------------------------|-------3----------|-----------------|---------------------| 
D|-------3---3--------0---|-1-----------1----|-0-----0----0----|---------------------| 
A|----------------3-------|------------------|-----------------|-3-----1---3-----1---| 
E|-1----------------------|------------------|-----------------|---------------------| 

G|---------------------------|---------------0---3---0---|------------------------| 
D|-------------------0-------|-------0---3---------------|-------3---3--------0---| 
A|-3-----1---3----3----------|---------------------------|----------------3-------| 
E|-----------------------1---|-3-------------------------|-1----------------------| 

G|-------3----------|-----------------|---------------------|---------------------------| 
D|-1-----------1----|-0-----0----0----|---------------------|-------------------0-------| 
A|------------------|-----------------|-3-----1---3-----1---|-3-----1---3----3----------| 
E|------------------|-----------------|---------------------|-----------------------1---| 

G|-----------------|-----------------|-----------------|-----------------|-----------------| 
D|-----------------|-----------------|-1-----1---1-----|-0-----0---0-----|-----------------| 
A|-----------------|-----------------|-----------------|-----------------|-3-----3---3-----| 
E|-3-----3---3-----|-1-----1---1-----|-----------------|-----------------|-----------------| 

G|-----------------|-----------------|-----------------|-----------------|-----------------| 
D|-----------------|-----------------|-----------------|-1-----1---1-----|-0-----0---0-----| 
A|-3-----3---3-----|-----------------|-----------------|-----------------|-----------------| 
E|-----------------|-3-----3---3-----|-1-----1---1-----|-----------------|-----------------| 

G|-----------------|-----------------|-----------------|-----------------|-----------------| 
D|-----------------|-----------------|-----------------|-----------------|-1-----1---1-----| 
A|-3-----3---3-----|-3-----3---3-----|-----------------|-----------------|-----------------| 
E|-----------------|-----------------|-3-----3---3-----|-1-----1---1-----|-----------------| 

G|-----------------|-----------------|-----------------|---------------------|------------------------| 
D|-0-----0---0-----|-----------------|-----------------|---------------------|-3-----3---3-------3----| 
A|-----------------|-3-----3---3-----|-3-----3---3-----|-1-----1---1-----1---|---------------1--------| 
E|-----------------|-----------------|-----------------|---------------------|------------------------| 

G|-3-----3-------3-----------|-----------------|------------------------|---------------------| 
D|-------------------0---3---|-1-----1---1-----|-1-------1---3-----1----|-0-----0---0-----0---| 
A|-----------1---------------|-----------------|-----1------------------|---------------------| 
E|---------------------------|-----------------|------------------------|---------------------| 

G|---------------------|---------------------|-----0---------------------------|---------------0---3---0---| 
D|---------------------|-0---------0---------|-0-------4---0-------0-------0---|-------0---3---------------| 
A|-3-----3---3-----3---|-------3---------3---|-----------------3-------3-------|---------------------------| 
E|---------------------|---------------------|---------------------------------|-3-------------------------| 

G|------------------------|-------3----------|---------------------|---------------------| 
D|-------3---3--------0---|-1-----------1----|-0-----0---0----0----|---------------------| 
A|----------------3-------|------------------|---------------------|-3-----1---3-----1---| 
E|-1----------------------|------------------|---------------------|---------------------| 

G|---------------------|---------------------|-----0---------------------------|---------------0---3---0---| 
D|---------------------|-0---------0---------|-0-------4---0-------0-------0---|-------0---3---------------| 
A|-3-----1---3----3----|-------3---------3---|-----------------3-------3-------|---------------------------| 
E|---------------------|---------------------|---------------------------------|-3-------------------------| 

G|------------------------|-------3----------|---------------------|---------------------| 
D|-------3---3--------0---|-1-----------1----|-0-----0---0----0----|---------------------| 
A|----------------3-------|------------------|---------------------|-3-----1---3-----1---| 
E|-1----------------------|------------------|---------------------|---------------------| 

G|---------------------|---------------------|-----0---------------------------|---------------0---3---0---| 
D|---------------------|-0---------0---------|-0-------4---0-------0-------0---|-------0---3---------------| 
A|-3-----1---3----3----|-------3---------3---|-----------------3-------3-------|---------------------------| 
E|---------------------|---------------------|---------------------------------|-3-------------------------| 

G|------------------------|-------3----------|-----------------|---------------------| 
D|-------3---3--------0---|-1-----------1----|-0-----0----0----|---------------------| 
A|----------------3-------|------------------|-----------------|-3-----1---3-----1---| 
E|-1----------------------|------------------|-----------------|---------------------| 

G|---------------------|---------------------|-----0---------------------------|---------------0---3---0---| 
D|---------------------|-0---------0---------|-0-------4---0-------0-------0---|-------0---3---------------| 
A|-3-----1---3----3----|-------3---------3---|-----------------3-------3-------|---------------------------| 
E|---------------------|---------------------|---------------------------------|-3-------------------------| 

G|------------------------|-------3----------|---------------------|--------|--------| 
D|-------3---3--------0---|-1-----------1----|-0-----0---0----0----|--------|--------| 
A|----------------3-------|------------------|---------------------|-3------|--------| 
E|-1----------------------|------------------|---------------------|--------|--------| 
	  

No existe una video leccione para esta canción

request
LosAcordes
Buscar
auto avanzar rasgueos aumentar disminuir cambiar color esconder acordes gráficos
losacordes exhibir acordes losacordes youTube video losacordes ocultar tabs losacordes ir hacia arriba losacordes