Silverchair

Início > Silverchai... > acordes

Cemetery Tablatura Bajo

Silverchair

Dificultad:Ningún gradoNingún grado

tercmoraes

tuner correct add songbook print version text version salvar en e-mail
acordesukuleletablaturabaixobateriaarmónicaflautacavacopiano Guitar Pro
acordes

Cemetery

	  
Main Riff 
G|-----------------------------------------------------------------------------| 
D|-----------------------------------------------------------------------------| 
A|0--0-0----0--0--0--0--0-/-3-----3-3-3-3---3-3------------------3-3-3-3---3-3-| 
E|-----------------------------------------------2-2-2-2---2-2-----------------| 

G|----------------------------------------------------------------------------------------| 
D|----------------------------------------------------------------------------------------| 
A|--------------------3-3-3-3---3-3------------------------3-3-3-3---3-3------------------| 
E|2-2-2-2---2-2-----------------------2-2-2-2---2-2------------------------2-2-2-2---2-2--| 

G|----------------------------------------------------------------------------------------| 
D|----------------------------------------------------------------------------------------| 
A|0--0-0--0--0--0---0--0-/-3-------------------5--3--3-3-3---3-3-3-3-3--------------------| 
E|----------------------------2-2-2--2-2-2-2------------------------------2-2-2--2-2-2-2--| 

G|----------------------------------------------------------------------------------------| 
D|----------------------------------------------------------------------------------------| 
A|5--3--3-3-3---3-3-3-3-3--------------------5--3--3-3-3---3-3-3-3-3------------------5-3-| 
E|--------------------------2-2-2--2-2-2-2----------------------------2-2-2--2-2-2-2------| 

G|---------------| 
D|---------------| 
A|---------------| 
E|2--2--2/7--75--| 



************************************ 

| /  Slide up 

************************************ 
	  

No existe una video leccione para esta canción

request
LosAcordes
Buscar
auto avanzar rasgueos aumentar disminuir cambiar color esconder acordes gráficos
losacordes exhibir acordes losacordes youTube video losacordes ocultar tabs losacordes ir hacia arriba losacordes