Red Hot Chili Peppers

Início > Red Hot Ch... > acordes

Havana Affair Tablatura Bajo

Red Hot Chili Peppers

Dificultad:Ningún gradoNingún grado

mneto

tuner correct add songbook print version text version salvar en e-mail
acordesukuleletablaturabaixobateriaarmónicaflautacavacopiano Guitar Pro
acordes

Havana Affair

	  INTRO 
 
G|---------------| 
D|------4--------| 
A|----5----------| 
E|-7------5------| 
 
        PRINCIPAL 
G|------------------------------------| 
D|------------------------------------| 
A|-------------4-2--------------------| 
E|-7-7--9--3-3-----5--5-5-7-2--2-2-2--| 
 
G|-------------5-3----------| 
D|--------------------------| 
A|--------------------------| 
E|-7-7-9-3--3--------5----2-| 
 
        PARTE "Baby baby make me loco..." 
G|----------|---------------| 
D|----------|---2h3---------| 
A|-3---3--2-|-3-----3-3-2-2-| 
E|----------|---------------| 
 
        DEPOIS VOLTA A INTRO 
 
        INTERVALO 
G|----------------| 
D|----------------| 
A|-----------7-7--| 
E|-5h7-7-7-7------| 
 
        PROCUREM IMPROVISAR 
 

	  

No existe una video leccione para esta canción

request
LosAcordes
Buscar
auto avanzar rasgueos aumentar disminuir cambiar color esconder acordes gráficos
losacordes exhibir acordes losacordes youTube video losacordes ocultar tabs losacordes ir hacia arriba losacordes