RBD

Início > RBD > acordes

Solo Quedate en Silencio Tablatura Bajo

RBD

Dificultad:Ningún gradoNingún grado

Brenda Palhares

tuner correct add songbook print version text version salvar en e-mail
acordesukuleletablaturabaixobateríaarmónicaflautacavacopiano Guitar Pro
acordes

Solo Quedate en Silencio

Áño: 2005 - Álbum: En Vivo

Tono:  G
	  intro o baixo entra um pouco depois da guitarra 
escute a musica ai vc vai ver 
 
g---------------------------------------------------------------------- 
d---------------------------------------------------------------------- 
a-------------------------2-2-x-2-2-x---------------------------------- 
e-3/15/3----3-3-x-3-3-x-----------------0-0-x--0-0-x-----5-5-x--5-5-x-- 
me abraça primeiro 
g---------------------------------------------------------------- 
d---------------------------------------------------------------- 
a-------------------2-2-x-2-2x----------------------------------- 
e-3-3-x--3-3-x---------------------0-0-x--0-0-x---5-5-x--5-5-x--- 
 
só espera um momento 
 
g---------------------------------------------------- 
d---------------------------------------------------- 
a-3-3-x-3---2-2-x-2-----------------3--3-x-3---5x-5-- 
e-----------------------0--0x--0--------------------- 
 
Refrão 
 
g------------------------------------------------------------- 
d------------------------------------------------------------- 
a----------------------------------3-3-x--3-3-x---5-5-x-5-5-x- 
e-3-3-x-3-3x-------0-0-x-0-0-x-------------------------------- 
 
tenho tanto medo 
g---------------------------------------------------------------- 
d---------------------------------------------------------------- 
a-------------------2-2-x-2-2x----------------------------------- 
e-3-3-x--3-3-x---------------------0-0-x--0-0-x---5-5-x--5-5-x--- 
só espera um momento 
 
g---------------------------------------------------- 
d---------------------------------------------------- 
a-3-3-x-3---2-2-x-2-----------------3--3-x-3---5x-5-- 
e-----------------------0--0x--0--------------------- 
 
muda esses plano 
g------------------------------------------------------------------------------ 
d------------------------------------------------------------------------------ 
a-5-5--5-5---0--0--0-0----2-2--2--2-------------------------------------------- 
e-----------------------------------0--0--0---0-----5--5--5-5-----8--8--8-8---- 
 

	  

No existe una video leccione para esta canción

request
LosAcordes
Buscar
auto avanzar rasgueos aumentar disminuir cambiar color esconder acordes gráficos
losacordes exhibir acordes losacordes youTube video losacordes ocultar tabs losacordes ir hacia arriba losacordes