RBD

Início > RBD > acordes

Enseñame Tablatura Bajo

RBD

Dificultad:PrincipiantePrincipiante

rednirjam

tuner correct add songbook print version text version salvar en e-mail
acordesukuleletablaturabaixobateríaarmónicaflautacavacopiano Guitar Pro
acordes

Enseñame

Áño: 2005 - Álbum: En Vivo

Tono:  D
	  essa é a parte que na guitarra tipo ela 
fala ensiname ai vc segura en sol 
 
g-------------- 
d-------------- 
a-------------- 
e--3-3-3-3----- 
as que estao entre parentes vc da um contra tempo as outras fora dos 
parentes sao como se fossem ums viradinhas falouu 
g----------------------------------------------------------- 
d----------------------------------------------------------- 
a-(-5-5)--5-5---(2-2-)--2-2--------------------------------- 
e-----------------------------(-5-5-)--5-5----(-3-3)--3-3--- 
 
quando começa a cantar da so um toque em cada nota no 
baixo mas da um tempinho quando o bumbo da batera bate 
um com o baixo e outar so o bumbo escute a musica e vc pega o tempo 
 
g------------------------------------------------------------ 
d------------------------------------------------------------ 
a-5-------------2--------------------------------------------- 2x 
e-------------------------5------------------3-------------- 
 
essa é a parte que canta pero vives por mim junto a mim 
no baixo da um contra tempo com o bumbo da batera fas um 
ves eu acho ai ja vai pro refrao 
 
g---------------------------------------------------------- 
d---------------------------------------------------------- 
a-5-x-5-5-x---2-x-2-2-x------------------------------------ 
e------------------------------5-x--5-5-x--3-x--3-3-x------ 
 
refrao igual a intro 
g-------------- 
d-------------- 
a-------------- 
e--3-3-3-3----- 
 
g----------------------------------------------------------- 
d----------------------------------------------------------- 
a-(-5-5)--5-5---(2-2-)--2-2--------------------------------- 
e-----------------------------(-5-5-)--5-5----(-3-3)--3-3--- 
 
e vai repetindo os riffs qualquer duvida meu e-mail é [email protected] 

	  

No existe una video leccione para esta canción

request
LosAcordes
Buscar
auto avanzar rasgueos aumentar disminuir cambiar color esconder acordes gráficos
losacordes exhibir acordes losacordes youTube video losacordes ocultar tabs losacordes ir hacia arriba losacordes