Paramore

Início > Paramore > acordes

Let The Flames Begin Tablatura Bajo

Paramore

Dificultad:FácilFácil

nala1

tuner correct add songbook print version text version salvar en e-mail
acordesukuleletablaturabaixobateríaarmónicaflautacavacopiano Guitar Pro
acordes

Let The Flames Begin

Áño: 2007 - Álbum: Riot!

	  Intro no bass until (0:12) 
G|----------------------------------------------------| 
D|----------------------------------------------------| 
A|----------------------------------------------------| 
D|424-4-2h4-777777777777777-00-0-0-00-9999999999999999| 

Verse 
G|----------------------------------------------------------------------| 
D|----------------------------------------------------------------------| 
A|-------------------------------7---5555555555555555-------------------| 
D|4444444444444444-7777777777777---7------------------999999999999999999| x2 

Pre-Chorus 
G|---------------| 
D|---------2-2h4-| 
A|5~---2~--------| 
D|---------------| 

Chorus 
G|------------------------------------------------------------------| 
D|------------------------------------------------------------------| 
A|------------------------------------------------------------------| 
D|4444444444444444-7777777777777777-000000000000000-9999999999999999| x2 

Verse x2 
Pre-Chorus 
G|----------------------| 
D|---------2-2-2h4p2----| 
A|5~---2~---------------| 
D|----------------------| 

Chorus x2 

Bridge "reaching as I sink down into light..." 
G|--------------------------------| 
D|-----------------4~--7~--9h11-9-| 
A|--------------------------------| 
D|4~--7~--0~--9~------------------| 

Chorus x3 

Outro 
G|-------------| 
D|-------------| 
A|-------------| 
D|--5~---------| 
	  

No existe una video leccione para esta canción

request
LosAcordes
Buscar
auto avanzar rasgueos aumentar disminuir cambiar color esconder acordes gráficos
losacordes exhibir acordes losacordes youTube video losacordes ocultar tabs losacordes ir hacia arriba losacordes