Paramore

Início > Paramore > acordes

Here We Go Again Tablatura Bajo

Paramore

Dificultad:Ningún gradoNingún grado

tamamoreira

tuner correct add songbook print version text version salvar en e-mail
acordesukuleletablaturabaixobateríaarmónicaflautacavacopiano Guitar Pro
acordes

Here We Go Again

Áño: 2005 - Álbum: All We Know Is Falling

	  It took me awhile to figure out the song.  I love it a lot. 
I think it's 100% correct. This is the way Jeremy plays it 
Song:Here We Go Again 
Artist: Paramore 
tabbed by: Valerie 
e-mail: [email protected] 


Intro 
G|--------------------------------------------------| 
D|---------------------------------------------6----| 
A|-------6h7p6-------7p6h7-------6h7p6-----7-9---7--| 
E|-5-5-5-------9-9-9-------5-5-5-------9-9----------| 

Verse 
G|---------------------------------------------------| 
D|-----------------------------------------------2---| 
A|-------6h7p6-------7p6h7-------6h7p6---------------| 
E|-5-5-5-------9-9-9-------5-5-5-------9-9--22-4---4-| 

G|--------------------------------------------------| 
D|---------------------------------------------6----| 
A|-------6h7p6-------7p6h7-------6h7p6-----7-9---7--| 
E|-5-5-5-------9-9-9-------5-5-5-------9-9----------| 

Chorus  
G|-----------------------------------------------| 
D|-----------------------------------------------| 
A|-------------7--------------44444444-6666-7777-| 
E|-5555-5-5-5----5555-5-5-5-5--------------------| x2 

G|-----------------------------------------------| 
D|-----------------------------------------------| 
A|-------------7--------------44444444-----------| 
E|-5555-5-5-5----5555-5-5-5-5----------444444-5~-| 

Intro x1 

Verse 
G|---------------------------------------------------| 
D|-----------------------------------------------2---| 
A|-------6h7p6-------7p6h7-------6h7p6---------------| 
E|-5-5-5-------9-9-9-------5-5-5-------9-9--22-4---4-| 

G|--------------------------------------------------| 
D|---------------------------------------------6----| 
A|-------6h7p6-------7p6h7-------6h7p6-----7-9---7--| 
E|-5-5-5-------9-9-9-------5-5-5-------9-9----------| 

Chorus  
G|-----------------------------------------------| 
D|-----------------------------------------------| 
A|-------------7--------------44444444-6666-7777-| 
E|-5555-5-5-5----5555-5-5-5-5--------------------| x2 

G|-----------------------------------------------| 
D|-----------------------------------------------| 
A|-------------7--------------44444444-----------| 
E|-5555-5-5-5----5555-5-5-5-5----------444444-5~-| 

Bridge (2:05) 
G|----------------------------------------------| 
D|----------------------------------------------| 
A|-00000----2----44444-----00000---2---44444444-| 
E|--------2----4-------020-------2---4----------| 

(2:13) 
G|-----------------------------------------------------------------| 
D|-----------------------------------------------------------------| 
A|-0000000000000000-44444444-6666-7777-0000000000000000-44444444---| 
E|---------------------------------------------------------------4-| 

Chorus  
G|-----------------------------------------------| 
D|-----------------------------------------------| 
A|-------------7--------------44444444-6666-7777-| 
E|-5555-5-5-5----5555-5-5-5-5--------------------| x2 

G|-----------------------------------------------| 
D|-----------------------------------------------| 
A|-------------7--------------44444444-----------| 
E|-5555-5-5-5----5555-5-5-5-5----------444444-5~-| 

Breakdown: 
G|---------------------------------------|    |----------------------| 
D|---------------------------------------|    |----------------------| 
A|0-0-0-0-0-0---2---2--44----------------|    |-44444444-66666666-7~-| 
E|------------2---4-------4-2-2-2-2-2020-| x4 |----------------------| 


Hope you enjoyed the tab. :)
	  

No existe una video leccione para esta canción

request
LosAcordes
Buscar
auto avanzar rasgueos aumentar disminuir cambiar color esconder acordes gráficos
losacordes exhibir acordes losacordes youTube video losacordes ocultar tabs losacordes ir hacia arriba losacordes