Paramore

Início > Paramore > acordes

Forgiveness Tablatura Bajo

Paramore

Dificultad:Ningún gradoNingún grado

ang-letra

tuner correct add songbook print version text version salvar en e-mail
acordesukuleletablaturabaixobateríaarmónicaflautacavacopiano Guitar Pro
acordes

Forgiveness

	  Intro 

Verse 

G|---------------------------------------------------------------------------| 
D|---------------------------------------------------------------------------| 
A|---5--5--5--x5----0---0-2------5--5--5--x5----0--0--0-2--------------------| 
E|--------------------------3-----------------------------3------------------| 

G|---------------------------------------------------------------------------| 
D|---------------------------------------------------------------------------| 
A|-----------------2-4------------0-2--------------2-4-----------------------| 
E|---2--2--2--x2-------3-------------2--2--2--x2-------3----3/5--------------| 

G|---------------------------------------------------------------------------| 
D|---------------------------------------------------------------------------| 
A|---5--5--5--x5----0---0-2------5--5--5--x5----0--0--0-x--------------------| 
E|--------------------------3-----------------------------3------------------| 

G|---------------------------------------------------------------------------| 
D|---------------------------------------------------------------------------| 
A|-----------------2-4----------2-0----------------2-4-----------------------| 
E|---2--2--2--x2-------3------3-----3--2--2--2--x2-------3----3/5------------| 


Chorus 

G|---------------------------------------------------------------------------| 
D|--------------------------4------------------------------------------------| 
A|---/5--5----5-5-5--5----7----0--0--0---------------------------------------| 
E|---------------------------------------\---3--3--3-------------------------| 

G|---------------------------------------------------------------------------| 
D|--------------------------4------------------------------------------------| 
A|---/5--5----5-5-5--5----7---0--0----2-0------------------------------------| 
E|-----------------------------------------3--3--3---------------------------| 

G|---------------------------------------------------------------------------| 
D|--------------------------4------------------------------------------------| 
A|---/5--5----5-5-5--5----7---0--0--0----------------------------------------| 
E|--------------------------------------\---3--3--3--------------------------| 

G|---------------------------------------------------------------------------| 
D|--------------------------4------------------------------------------------| 
A|---/5--5----5-5-5--5----7---0--0---0-0-------------------------------------| 
E|-----------------------------------------3----3----------------------------| 

Verse 

G|---------------------------------------------------------------------------| 
D|---------------------------------------------------------------------------| 
A|---------------------------17\--5--5--5--x5----0--0--0-2-------------------| 
E|---------------------------------------------------------3-----------------| 

G|---------------------------------------------------------------------------| 
D|---------------------------------------------------------------------------| 
A|-----------------2-4----------2-0------------------------------------------| 
E|---2--2--2--x2-------3------3-----3--2--2--2--x2-------3------5------------| 

G|---11---11---11---11-----------------/11---11--11h12-12--------------------| 
D|---12---12---12---12-----------------/12---12---12---12--------------------| 
A|-----------------------0---0-2--------------------------0--0--0-2----------| 
E|-------------------------------3---------------------------------3---------| 

G|---------------------------------------------------------------------------| 
D|---------------------------------------------------------------------------| 
A|-----------------2-4----------2-0--------------------4---------------------| 
E|---2--2--2--x2-------3------3-----3--2--2--2--x2-------3----3/5------------| 

Chorus 

G|---------------------------------------------------------------------------| 
D|--------------------------4------------------------------------------------| 
A|---/5--5----5-5-5--5----7----0--0--0-0-------------------------------------| 
E|---------------------------------------\---3--3--3-------------------------| 

G|---------------------------------------------------------------------------| 
D|--------------------------4------------------------------------------------| 
A|---/5--5----5-5-5--5----7------0--0--0-------------------------------------| 
E|-----------------------------------------\---3--3--3-----------------------| 

G|---------------------------------------------------------------------------| 
D|--------------------------4------------------------------------------------| 
A|---/5--5----5-5-5--5----7-----0--0--0-0------------------------------------| 
E|-----------------------------------------\-3--3--3-------------------------| 

G|---------------------------------------------------------------------------| 
D|--------------------------4------------------------------------------------| 
A|---/5--5----5-5-5--5----7----0--0--0-0-------------------------------------| 
E|---------------------------------------------3----3------------------------| 

G|---------------------------------------------------------------------------| 
D|--------------------------4------------------------------------------------| 
A|---/5--5----5-5-5--5----7----0--0--0-0-------------------------------------| 
E|---------------------------------------\---3--3--3-------------------------| 

G|---------------------------------------------------------------------------| 
D|--------------------------4------------------------------------------------| 
A|---/5--5----5-5-5--5----7------0--0--0-------------------------------------| 
E|-----------------------------------------\---3--x--3-----------------------| 

G|---------------------------------------------------------------------------| 
D|--------------------------4------------------------------------------------| 
A|---/5--5----5-5-5--5----7------0--0--0-------------------------------------| 
E|-----------------------------------------\---3--3--3-----------------------| 

G|---------------------------------------------------------------------------| 
D|--------------------------4------------------------------------------------| 
A|---/5--5----5-5-5--5----7------0--0--0-------------------------------------| 
E|-----------------------------------------\---3--3--3-----------------------| 

Interlude 

G|---------------------------------------------------------------------------| 
D|------------------2-0----------------2-0-----------------------------------| 
A|-----------2------------------2--------------------------------------------| 
E|---5--5--5---3--3-----5--5--5---3--3---------------------------------------| x2 

Bridge 

G|---------------------------------------------------------------------------| 
D|---------------------------------------------------------------------------| 
A|---------------------------------------------------------------------------| 
E|---2--2-2---2-2--2-2---2-3--3-3---3-3--3-3---3-3--3-3---3-3--3-3-----------| 

G|---------------------------------------------------------------------------| 
D|---------------------------------------------------------------------------| 
A|----------------------------------------------------------2-2-2-2-4-2------| 
E|-3-2--2-2---2-2--2-2---2-3--3-3---3-3--3-3---3-3--3-5-5-5------------------| 

G|---------------------------------------------------------------------------| 
D|------------4-2------------------------------------------------------------| 
A|----------------2---0-2--2-2-2-2-2--2-2--2-2--0-2--2-2---2-2---2-2-4-2-----| 
E|-2--2-2---2-------2--------------------------------------------------------| 

G|---------------------------------------------------------------------------| 
D|---------------------------------------------------------------------------| 
A|---------------------------------------------------------------------------| 
E|---5--5-5---5-5---5-5---5-5---5-5---5-5---5-5\2/5--------------------------| 

G|---------------------------------------------------------------------------| 
D|---------------------------------------------------------------------------| 
A|---------------------------------------------------------------------------| 
E|---5--5-5---5-5---5-5---5-5---5-5---5-5/17-17-17-17------------------------|  

Chorus 

G|---------------------------------------------------------------------------| 
D|---------------------------4-----------------------------------------------| 
A|---/5--5----5-5-5-5-5----7---0--0--0-0-------------------------------------| 
E|---------------------------------------\---3--3--3-------------------------| 

G|---------------------------------------------------------------------------| 
D|--------------------------4------------------------------------------------| 
A|---/5--5----5-5-5--5----7------0--0--2-0-----------------------------------| 
E|-------------------------------------------3--3--3-------------------------| 

G|---------------------------------------------------------------------------| 
D|--------------------------4------------------------------------------------| 
A|---/5--5----5-5-5--5----7----0--0--0-0-------------------------------------| 
E|---------------------------------------\---3--3--3-------------------------| 

G|---------------------------------------------------------------------------| 
D|--------------------------4------------------------------------------------| 
A|---/5--5----5-5-5--5----7---0--0---0-0-------------------------------------| 
E|----------------------------------------3-3-3-3----------------------------| 

G|---------------------------------------------------------------------------| 
D|-----------------------------------9---------------------------------------| 
A|--------------------------9-10/12----8--9--12------------------------------| 
E|---/10--10--10--10/12--10--------------------------------------------------| 

G|---------------------------------------------------------------------------| 
D|--------------------------4------------------------------------------------| 
A|---/5--5----5-5-5--5----7------0--0--0-0-----------------------------------| 
E|------------------------------------------\---3----3-----------------------| 

G|---------------------------------------------------------------------------| 
D|--------------------------4------------------------------------------------| 
A|---/5--5----5-5-5--5----7------0--0--0-------------------------------------| 
E|-----------------------------------------\---3--3--3-----------------------| 

G|---------------------------------------------------------------------------| 
D|--------------------------4------------------------------------------------| 
A|---/5--5----5-5-5--5----7------0--0--0-------------------------------------| 
E|-----------------------------------------\---3--3--3-----------------------| 


Outro 

G|---------------------------------------------------------------------------| 
D|---------------------------------------------------------------------------| 
A|--5---5--------------------------------------------------------------------| 
E|----------2---2------------------------------------------------------------| 



************************************ 

| x  Dead note 
| /  Slide up 
| \  Slide down 
| h  Hammer-on 

************************************ 
	  

No existe una video leccione para esta canción

request
LosAcordes
Buscar
auto avanzar rasgueos aumentar disminuir cambiar color esconder acordes gráficos
losacordes exhibir acordes losacordes youTube video losacordes ocultar tabs losacordes ir hacia arriba losacordes