Paramore

Início > Paramore > acordes

Feeling Sorry Tablatura Bajo

Paramore

Dificultad:Ningún gradoNingún grado

sabrjoao

tuner correct add songbook print version text version salvar en e-mail
acordesukuleletablaturabaixobateríaarmónicaflautacavacopiano Guitar Pro
acordes

Feeling Sorry

Áño: 2009 - Álbum: Brand New Eyes

Tono:  E
	   Valerie L 
e-mail: [email protected] 
Tuning: standard 

Intro 
G|------------------------------------------------| 
D|------------------------------------------------| 
A|------------------------44-4-44-4-4-44-4-4-2-2-2| 
E|00-0-00-0-0-00-0-00-0-0-------------------------|x2 

Verse "We still live in the same town" 
G|-----------------------------------------------| 
D|--------------------------------------6-----4--| 
A|------------------------44-4-44-4-4-4---4-2---2| 
E|00-0-00-0-0-00-0-02-2-2------------------------| 

"I go to all the same places" 
G|---------------------------------------------| 
D|---------------------------------------------| 
A|-----------------------44-4-44-4-4-44-4-4-222| 
E|00-0-00-0-0-00-0-02-2-2----------------------| 

pre-chorus "and i'm getting bored" 
G|------------------------------------------------------| 
D|--------------------666666----------------------------| 
A|000000-222222-444444-------000000-222222-444444-666666| 
E|------------------------------------------------------| 

chorus "i feel no sympathy" 
G|----------------------------------------------| 
D|----------------------------------------------| 
A|-----------------------------------444-4------| 
E|00-0-05-5-5-00-0-07-7-7-00-0-05-5-5------7-7-7| 

"you barely get by and the rest of us are trying" 
G|-------------------------------------------| 
D|-------------6-----------------------------| 
A|--7----------------------7--------44-4-4-2-| 
E|0--0-5-5-5-0---0-7-7-7-0--0-5-5-5----------| 

Intro x2 

verse "But i try not to think about.." 
G|-------------------------------------------| 
D|-------------------------------------------| 
A|-----------------------44-4-44-4-4-44-4-4-2| 
E|00-0-00-0-0-00-0-02-2-2--------------------| 

"well as for me I got out" 
G|-----------------------------------------------| 
D|-----------------------------------------------| 
A|-----------------------44-4-44-4-4-44-4-4-2-2-2| 
E|00-0-00-0-0-00-0-02-2-2------------------------| 

pre-chorus x1 

chorus "i feel no sympathy" 
G|----------------------------------------------| 
D|----------------------------------------------| 
A|-----------------------------------444-4------| 
E|00-0-05-5-5-00-0-07-7-7-00-0-05-5-5------7-7-7| 

"you barely get by and the rest of us are trying" 
G|-------------------------------------------| 
D|-------------6-----------------------------| 
A|--7----------------------7--------44-4-4-2-| 
E|0--0-5-5-5-0---0-7-7-7-0--0-5-5-5----------| 

breakdown "and all the best lies" 
G|------------------------------------------------| 
D|------------------------------------------------| 
A|--------------4-6-7---------------------4-6-7---| 
E|555555-777777------777777-555555-777777-------7-| 

"won't you promise me tonight" 
G|--------------------------------| 
D|-------------------999999999999-| 
A|--------------------------------| 
E|555555555555-777777-------------| 

G|-------------------------------------------| 
D|-------------6-----------------------------| 
A|--7----------------------7--------444444-2-| 
E|0--0-5-5-5-0---0-7-7-7-0--0-5-5-5----------| 

chorus "i feel no sympathy" 
G|----------------------------------------------| 
D|----------------------------------------------| 
A|-----------------------------------444-4------| 
E|00-0-05-5-5-00-0-07-7-7-00-0-05-5-5------7-7-7| 

"you barely get by and the rest of us are trying" 
G|----------------------------------------| 
D|-------------6--------------------------| 
A|--7----------------------7--------4-4-2-| 
E|0--0-5-5-5-0---0-7-7-7-0--0-5-5-5-------| 

intro x2 

| /  slide up 
| \  slide down 
| h  hammer-on 
| p  pull-off 
| ~  vibrato 
| +  harmonic 
| x  Mute note 
===============================================================================
	  

No existe una video leccione para esta canción

request
LosAcordes
Buscar
auto avanzar rasgueos aumentar disminuir cambiar color esconder acordes gráficos
losacordes exhibir acordes losacordes youTube video losacordes ocultar tabs losacordes ir hacia arriba losacordes